  0
SECTION
  2
HEADER
  9
$ACADVER
  1
AC1014
  9
$ACADMAINTVER
 70
     9
  9
$DWGCODEPAGE
  3
ANSI_932
  9
$INSBASE
 10
0.0
 20
0.0
 30
0.0
  9
$EXTMIN
 10
-265.5250014305115
 20
-100.2426691953373
 30
0.0
  9
$EXTMAX
 10
265.3250014305115
 20
101.2426691953373
 30
0.0
  9
$LIMMIN
 10
-148.5
 20
-105.0
  9
$LIMMAX
 10
148.5
 20
105.0
  9
$ORTHOMODE
 70
     0
  9
$REGENMODE
 70
     1
  9
$FILLMODE
 70
     1
  9
$QTEXTMODE
 70
     0
  9
$MIRRTEXT
 70
     1
  9
$DRAGMODE
 70
     2
  9
$LTSCALE
 40
1.0
  9
$OSMODE
 70
    37
  9
$ATTMODE
 70
     1
  9
$TEXTSIZE
 40
0.2
  9
$TRACEWID
 40
0.05
  9
$TEXTSTYLE
  7
STANDARD
  9
$CLAYER
  8
0
  9
$CELTYPE
  6
BYLAYER
  9
$CECOLOR
 62
   256
  9
$CELTSCALE
 40
1.0
  9
$DELOBJ
 70
     1
  9
$DISPSILH
 70
     0
  9
$DIMSCALE
 40
1.0
  9
$DIMASZ
 40
2.5
  9
$DIMEXO
 40
0.0625
  9
$DIMDLI
 40
0.38
  9
$DIMRND
 40
0.0
  9
$DIMDLE
 40
0.0
  9
$DIMEXE
 40
0.18
  9
$DIMTP
 40
0.0
  9
$DIMTM
 40
0.0
  9
$DIMTXT
 40
0.18
  9
$DIMCEN
 40
0.09
  9
$DIMTSZ
 40
0.0
  9
$DIMTOL
 70
     0
  9
$DIMLIM
 70
     0
  9
$DIMTIH
 70
     1
  9
$DIMTOH
 70
     1
  9
$DIMSE1
 70
     0
  9
$DIMSE2
 70
     0
  9
$DIMTAD
 70
     3
  9
$DIMZIN
 70
     0
  9
$DIMBLK
  1

  9
$DIMASO
 70
     1
  9
$DIMSHO
 70
     1
  9
$DIMPOST
  1

  9
$DIMAPOST
  1

  9
$DIMALT
 70
     0
  9
$DIMALTD
 70
     2
  9
$DIMALTF
 40
25.4
  9
$DIMLFAC
 40
1.0
  9
$DIMTOFL
 70
     0
  9
$DIMTVP
 40
0.0
  9
$DIMTIX
 70
     0
  9
$DIMSOXD
 70
     0
  9
$DIMSAH
 70
     0
  9
$DIMBLK1
  1

  9
$DIMBLK2
  1

  9
$DIMSTYLE
  2
STANDARD
  9
$DIMCLRD
 70
     0
  9
$DIMCLRE
 70
     0
  9
$DIMCLRT
 70
     0
  9
$DIMTFAC
 40
1.0
  9
$DIMGAP
 40
0.09
  9
$DIMJUST
 70
     0
  9
$DIMSD1
 70
     0
  9
$DIMSD2
 70
     0
  9
$DIMTOLJ
 70
     1
  9
$DIMTZIN
 70
     0
  9
$DIMALTZ
 70
     0
  9
$DIMALTTZ
 70
     0
  9
$DIMFIT
 70
     3
  9
$DIMUPT
 70
     0
  9
$DIMUNIT
 70
     2
  9
$DIMDEC
 70
     4
  9
$DIMTDEC
 70
     4
  9
$DIMALTU
 70
     2
  9
$DIMALTTD
 70
     2
  9
$DIMTXSTY
  7
STANDARD
  9
$DIMAUNIT
 70
     0
  9
$LUNITS
 70
     2
  9
$LUPREC
 70
     4
  9
$SKETCHINC
 40
0.1
  9
$FILLETRAD
 40
0.5
  9
$AUNITS
 70
     0
  9
$AUPREC
 70
     0
  9
$MENU
  1
.
  9
$ELEVATION
 40
0.0
  9
$PELEVATION
 40
0.0
  9
$THICKNESS
 40
0.0
  9
$LIMCHECK
 70
     0
  9
$CHAMFERA
 40
0.5
  9
$CHAMFERB
 40
0.5
  9
$CHAMFERC
 40
1.0
  9
$CHAMFERD
 40
0.0
  9
$SKPOLY
 70
     0
  9
$TDCREATE
 40
2457536.448556562
  9
$TDUPDATE
 40
2457536.448556574
  9
$TDINDWG
 40
0.0000000116
  9
$TDUSRTIMER
 40
0.0000000116
  9
$USRTIMER
 70
     1
  9
$ANGBASE
 50
0.0
  9
$ANGDIR
 70
     0
  9
$PDMODE
 70
     0
  9
$PDSIZE
 40
1.0
  9
$PLINEWID
 40
0.0
  9
$COORDS
 70
     1
  9
$SPLFRAME
 70
     0
  9
$SPLINETYPE
 70
     6
  9
$SPLINESEGS
 70
     8
  9
$ATTDIA
 70
     0
  9
$ATTREQ
 70
     1
  9
$HANDLING
 70
     1
  9
$HANDSEED
  5
17F
  9
$SURFTAB1
 70
     6
  9
$SURFTAB2
 70
     6
  9
$SURFTYPE
 70
     6
  9
$SURFU
 70
     6
  9
$SURFV
 70
     6
  9
$UCSNAME
  2

  9
$UCSORG
 10
0.0
 20
0.0
 30
0.0
  9
$UCSXDIR
 10
1.0
 20
0.0
 30
0.0
  9
$UCSYDIR
 10
0.0
 20
1.0
 30
0.0
  9
$PUCSNAME
  2

  9
$PUCSORG
 10
0.0
 20
0.0
 30
0.0
  9
$PUCSXDIR
 10
1.0
 20
0.0
 30
0.0
  9
$PUCSYDIR
 10
0.0
 20
1.0
 30
0.0
  9
$USERI1
 70
     0
  9
$USERI2
 70
     0
  9
$USERI3
 70
     0
  9
$USERI4
 70
     0
  9
$USERI5
 70
     0
  9
$USERR1
 40
0.0
  9
$USERR2
 40
0.0
  9
$USERR3
 40
0.0
  9
$USERR4
 40
0.0
  9
$USERR5
 40
0.0
  9
$WORLDVIEW
 70
     1
  9
$SHADEDGE
 70
     3
  9
$SHADEDIF
 70
    70
  9
$TILEMODE
 70
     1
  9
$MAXACTVP
 70
    64
  9
$PINSBASE
 10
0.0
 20
0.0
 30
0.0
  9
$PLIMCHECK
 70
     0
  9
$PEXTMIN
 10
1.000000000000000E+20
 20
1.000000000000000E+20
 30
1.000000000000000E+20
  9
$PEXTMAX
 10
-1.000000000000000E+20
 20
-1.000000000000000E+20
 30
-1.000000000000000E+20
  9
$PLIMMIN
 10
0.0
 20
0.0
  9
$PLIMMAX
 10
12.0
 20
9.0
  9
$UNITMODE
 70
     0
  9
$VISRETAIN
 70
     0
  9
$PLINEGEN
 70
     1
  9
$PSLTSCALE
 70
     0
  9
$TREEDEPTH
 70
  3020
  9
$PICKSTYLE
 70
     1
  9
$CMLSTYLE
  2
STANDARD
  9
$CMLJUST
 70
     0
  9
$CMLSCALE
 40
1.0
  9
$PROXYGRAPHICS
 70
     0
  9
$MEASUREMENT
 70
     1
  0
ENDSEC
  0
SECTION
  2
CLASSES
  0
CLASS
  1
ACDBDICTIONARYWDFLT
  2
AcDbDictionaryWithDefault
  3
ObjectDBX Classes
 90
        0
280
     0
281
     0
  0
CLASS
  1
XRECORD
  2
AcDbXrecord
  3
AutoCAD 2000
 90
        0
280
     0
281
     0
  0
CLASS
  1
LWPOLYLINE
  2
AcDbPolyline
  3
AutoCAD 2000
 90
        0
280
     0
281
     1
  0
CLASS
  1
HATCH
  2
AcDbHatch
  3
AutoCAD 2000
 90
        0
280
     0
281
     1
  0
CLASS
  1
ACDBPLACEHOLDER
  2
AcDbPlaceHolder
  3
ObjectDBX Classes
 90
        0
280
     0
281
     0
  0
CLASS
  1
LAYOUT
  2
AcDbLayout
  3
ObjectDBX Classes
 90
        0
280
     0
281
     0
  0
ENDSEC
  0
SECTION
  2
TABLES
  0
TABLE
  2
VPORT
  5
8
330
0
100
AcDbSymbolTable
 70
     1
  0
VPORT
  5
29
330
8
100
AcDbSymbolTableRecord
100
AcDbViewportTableRecord
  2
*ACTIVE
 70
     0
 10
0.0
 20
0.0
 11
1.0
 21
1.0
 12
0.0
 22
0.0
 13
0.0
 23
0.0
 14
0.5
 24
0.5
 15
0.5
 25
0.5
 16
0.0
 26
0.0
 36
1.0
 17
-0.0999999999999979
 27
-0.5
 37
0.0
 40
68.50501505282935
 41
2.634683035009323
 42
50.0
 43
0.0
 44
0.0
 50
0.0
 51
0.0
 71
     0
 72
  1000
 73
     1
 74
     1
 75
     0
 76
     0
 77
     0
 78
     0
  0
ENDTAB
  0
TABLE
  2
LTYPE
  5
5
330
0
100
AcDbSymbolTable
 70
    28
  0
LTYPE
  5
14
330
5
100
AcDbSymbolTableRecord
100
AcDbLinetypeTableRecord
  2
BYBLOCK
 70
     0
  3

 72
    65
 73
     0
 40
0.0
  0
LTYPE
  5
15
330
5
100
AcDbSymbolTableRecord
100
AcDbLinetypeTableRecord
  2
BYLAYER
 70
     0
  3

 72
    65
 73
     0
 40
0.0
  0
LTYPE
  5
16
330
5
100
AcDbSymbolTableRecord
100
AcDbLinetypeTableRecord
  2
CONTINUOUS
 70
     0
  3
Solid line
 72
    65
 73
     0
 40
0.0
  0
LTYPE
  5
2B
330
5
100
AcDbSymbolTableRecord
100
AcDbLinetypeTableRecord
  2
HIDDENX2
 70
     0
  3
CADPAC LINETYPE
 72
    65
 73
     2
 40
5.008431703204053
 49
3.75632377740304
 74
     0
 49
-1.252107925801013
 74
     0
  0
LTYPE
  5
2C
330
5
100
AcDbSymbolTableRecord
100
AcDbLinetypeTableRecord
  2
HIDDEN
 70
     0
  3
CADPAC LINETYPE
 72
    65
 73
     2
 40
3.75632377740304
 49
2.504215851602027
 74
     0
 49
-1.252107925801013
 74
     0
  0
LTYPE
  5
2D
330
5
100
AcDbSymbolTableRecord
100
AcDbLinetypeTableRecord
  2
HIDDEN2
 70
     0
  3
CADPAC LINETYPE
 72
    65
 73
     2
 40
3.130269814502533
 49
1.87816188870152
 74
     0
 49
-1.252107925801013
 74
     0
  0
LTYPE
  5
2E
330
5
100
AcDbSymbolTableRecord
100
AcDbLinetypeTableRecord
  2
DASHED
 70
     0
  3
CADPAC LINETYPE
 72
    65
 73
     2
 40
3.505902192242843
 49
2.504215851602027
 74
     0
 49
-1.001686340640816
 74
     0
  0
LTYPE
  5
2F
330
5
100
AcDbSymbolTableRecord
100
AcDbLinetypeTableRecord
  2
DASHED2
 70
     0
  3
CADPAC LINETYPE
 72
    65
 73
     2
 40
2.253794266441815
 49
1.50252951096121
 74
     0
 49
-0.7512647554806051
 74
     0
  0
LTYPE
  5
30
330
5
100
AcDbSymbolTableRecord
100
AcDbLinetypeTableRecord
  2
DASHEDX2
 70
     0
  3
CADPAC LINETYPE
 72
    65
 73
     2
 40
6.010118043844869
 49
5.008431703204053
 74
     0
 49
-1.001686340640816
 74
     0
  0
LTYPE
  5
31
330
5
100
AcDbSymbolTableRecord
100
AcDbLinetypeTableRecord
  2
DOTX2
 70
     0
  3
CADPAC LINETYPE
 72
    65
 73
     2
 40
2.191188870151777
 49
0.0
 74
     0
 49
-2.191188870151777
 74
     0
  0
LTYPE
  5
32
330
5
100
AcDbSymbolTableRecord
100
AcDbLinetypeTableRecord
  2
DOT
 70
     0
  3
CADPAC LINETYPE
 72
    65
 73
     2
 40
1.752951096121421
 49
0.0
 74
     0
 49
-1.752951096121421
 74
     0
  0
LTYPE
  5
33
330
5
100
AcDbSymbolTableRecord
100
AcDbLinetypeTableRecord
  2
DOT2
 70
     0
  3
CADPAC LINETYPE
 72
    65
 73
     2
 40
1.314713322091066
 49
0.0
 74
     0
 49
-1.314713322091066
 74
     0
  0
LTYPE
  5
34
330
5
100
AcDbSymbolTableRecord
100
AcDbLinetypeTableRecord
  2
CENTERX2
 70
     0
  3
CADPAC LINETYPE
 72
    65
 73
     4
 40
7.51264755480608
 49
3.130269814502533
 74
     0
 49
-1.565134907251267
 74
     0
 49
1.252107925801013
 74
     0
 49
-1.565134907251267
 74
     0
  0
LTYPE
  5
35
330
5
100
AcDbSymbolTableRecord
100
AcDbLinetypeTableRecord
  2
CENTER
 70
     0
  3
CADPAC LINETYPE
 72
    65
 73
     4
 40
5.759696458684661
 49
2.504215851602027
 74
     0
 49
-1.252107925801013
 74
     0
 49
0.7512647554806079
 74
     0
 49
-1.252107925801013
 74
     0
  0
LTYPE
  5
36
330
5
100
AcDbSymbolTableRecord
100
AcDbLinetypeTableRecord
  2
CENTER2
 70
     0
  3
CADPAC LINETYPE
 72
    65
 73
     4
 40
4.006745362563242
 49
1.87816188870152
 74
     0
 49
-0.93908094435076
 74
     0
 49
0.2504215851602027
 74
     0
 49
-0.93908094435076
 74
     0
  0
LTYPE
  5
37
330
5
100
AcDbSymbolTableRecord
100
AcDbLinetypeTableRecord
  2
DASHDOTX2
 70
     0
  3
CADPAC LINETYPE
 72
    65
 73
     4
 40
12.02023608768974
 49
6.010118043844841
 74
     0
 49
-2.003372681281633
 74
     0
 49
2.003372681281633
 74
     0
 49
-2.003372681281633
 74
     0
  0
LTYPE
  5
38
330
5
100
AcDbSymbolTableRecord
100
AcDbLinetypeTableRecord
  2
DASHDOT
 70
     0
  3
CADPAC LINETYPE
 72
    65
 73
     4
 40
6.010118043844898
 49
3.005059021922449
 74
     0
 49
-1.001686340640816
 74
     0
 49
1.001686340640816
 74
     0
 49
-1.001686340640816
 74
     0
  0
LTYPE
  5
39
330
5
100
AcDbSymbolTableRecord
100
AcDbLinetypeTableRecord
  2
DASHDOT2
 70
     0
  3
CADPAC LINETYPE
 72
    65
 73
     4
 40
3.856492411467143
 49
2.253794266441837
 74
     0
 49
-0.7512647554806122
 74
     0
 49
0.1001686340640816
 74
     0
 49
-0.7512647554806122
 74
     0
  0
LTYPE
  5
3A
330
5
100
AcDbSymbolTableRecord
100
AcDbLinetypeTableRecord
  2
DIVIDEX2
 70
     0
  3
CADPAC LINETYPE
 72
    65
 73
     6
 40
16.026981450253
 49
6.010118043844841
 74
     0
 49
-2.003372681281633
 74
     0
 49
2.003372681281633
 74
     0
 49
-2.003372681281633
 74
     0
 49
2.003372681281633
 74
     0
 49
-2.003372681281633
 74
     0
  0
LTYPE
  5
3B
330
5
100
AcDbSymbolTableRecord
100
AcDbLinetypeTableRecord
  2
DIVIDE
 70
     0
  3
CADPAC LINETYPE
 72
    65
 73
     6
 40
8.01349072512653
 49
3.005059021922449
 74
     0
 49
-1.001686340640816
 74
     0
 49
1.001686340640816
 74
     0
 49
-1.001686340640816
 74
     0
 49
1.001686340640816
 74
     0
 49
-1.001686340640816
 74
     0
  0
LTYPE
  5
3C
330
5
100
AcDbSymbolTableRecord
100
AcDbLinetypeTableRecord
  2
DIVIDE2
 70
     0
  3
CADPAC LINETYPE
 72
    65
 73
     6
 40
6.010118043844898
 49
2.253794266441837
 74
     0
 49
-0.7512647554806122
 74
     0
 49
0.7512647554806122
 74
     0
 49
-0.7512647554806122
 74
     0
 49
0.7512647554806122
 74
     0
 49
-0.7512647554806122
 74
     0
  0
LTYPE
  5
3D
330
5
100
AcDbSymbolTableRecord
100
AcDbLinetypeTableRecord
  2
BORDERX2
 70
     0
  3
CADPAC LINETYPE
 72
    65
 73
     6
 40
10.95594435075887
 49
3.130269814502533
 74
     0
 49
-1.565134907251267
 74
     0
 49
3.130269814502533
 74
     0
 49
-1.565134907251267
 74
     0
 49
0.0
 74
     0
 49
-1.565134907251267
 74
     0
  0
LTYPE
  5
3E
330
5
100
AcDbSymbolTableRecord
100
AcDbLinetypeTableRecord
  2
BORDER
 70
     0
  3
CADPAC LINETYPE
 72
    65
 73
     6
 40
8.764755480607093
 49
2.504215851602027
 74
     0
 49
-1.252107925801013
 74
     0
 49
2.504215851602027
 74
     0
 49
-1.252107925801013
 74
     0
 49
0.0
 74
     0
 49
-1.252107925801013
 74
     0
  0
LTYPE
  5
3F
330
5
100
AcDbSymbolTableRecord
100
AcDbLinetypeTableRecord
  2
BORDER2
 70
     0
  3
CADPAC LINETYPE
 72
    65
 73
     6
 40
6.510961214165249
 49
2.003372681281633
 74
     0
 49
-1.252107925800999
 74
     0
 49
0.7512647554806051
 74
     0
 49
-1.252107925800999
 74
     0
 49
0.0
 74
     0
 49
-1.252107925801013
 74
     0
  0
LTYPE
  5
40
330
5
100
AcDbSymbolTableRecord
100
AcDbLinetypeTableRecord
  2
PHANTOMX2
 70
     0
  3
CADPAC LINETYPE
 72
    65
 73
     6
 40
9.3908094435076
 49
3.130269814502533
 74
     0
 49
-1.252107925801013
 74
     0
 49
1.252107925801013
 74
     0
 49
-1.252107925801013
 74
     0
 49
1.252107925801013
 74
     0
 49
-1.252107925801013
 74
     0
  0
LTYPE
  5
41
330
5
100
AcDbSymbolTableRecord
100
AcDbLinetypeTableRecord
  2
PHANTOM
 70
     0
  3
CADPAC LINETYPE
 72
    65
 73
     6
 40
7.763069139966282
 49
2.504215851602027
 74
     0
 49
-1.252107925801013
 74
     0
 49
0.7512647554806079
 74
     0
 49
-1.252107925801013
 74
     0
 49
0.7512647554806079
 74
     0
 49
-1.252107925801013
 74
     0
  0
LTYPE
  5
42
330
5
100
AcDbSymbolTableRecord
100
AcDbLinetypeTableRecord
  2
PHANTOM2
 70
     0
  3
CADPAC LINETYPE
 72
    65
 73
     6
 40
6.636172006745371
 49
1.87816188870152
 74
     0
 49
-1.252107925801013
 74
     0
 49
0.5008431703204054
 74
     0
 49
-1.252107925801013
 74
     0
 49
0.5008431703204054
 74
     0
 49
-1.252107925801013
 74
     0
  0
LTYPE
  5
43
330
5
100
AcDbSymbolTableRecord
100
AcDbLinetypeTableRecord
  2
ACAD_ISO06W100
 70
     0
  3
CADPAC LINETYPE
 72
    65
 73
     8
 40
13.27234401349065
 49
6.010118043844841
 74
     0
 49
-1.252107925800999
 74
     0
 49
0.7512647554806051
 74
     0
 49
-1.252107925800999
 74
     0
 49
0.7512647554806051
 74
     0
 49
-1.252107925800999
 74
     0
 49
0.7512647554806051
 74
     0
 49
-1.252107925800999
 74
     0
  0
LTYPE
  5
44
330
5
100
AcDbSymbolTableRecord
100
AcDbLinetypeTableRecord
  2
ACAD_ISO13W100
 70
     0
  3
CADPAC LINETYPE
 72
    65
 73
     8
 40
10.01686340640811
 49
2.504215851602027
 74
     0
 49
-1.252107925801013
 74
     0
 49
2.504215851602027
 74
     0
 49
-1.252107925801013
 74
     0
 49
0.0
 74
     0
 49
-1.252107925801013
 74
     0
 49
0.0
 74
     0
 49
-1.252107925801013
 74
     0
  0
LTYPE
  5
45
330
5
100
AcDbSymbolTableRecord
100
AcDbLinetypeTableRecord
  2
ACAD_ISO14W100
 70
     0
  3
CADPAC LINETYPE
 72
    65
 73
     8
 40
7.51264755480608
 49
2.504215851602027
 74
     0
 49
-1.252107925801013
 74
     0
 49
0.0
 74
     0
 49
-1.252107925801013
 74
     0
 49
0.0
 74
     0
 49
-1.252107925801013
 74
     0
 49
0.0
 74
     0
 49
-1.252107925801013
 74
     0
  0
ENDTAB
  0
TABLE
  2
LAYER
  5
2
330
0
100
AcDbSymbolTable
 70
     1
  0
LAYER
  5
10
330
2
100
AcDbSymbolTableRecord
100
AcDbLayerTableRecord
  2
0
 70
     0
 62
     7
  6
CONTINUOUS
  0
ENDTAB
  0
TABLE
  2
STYLE
  5
3
330
0
100
AcDbSymbolTable
 70
     2
  0
STYLE
  5
11
330
3
100
AcDbSymbolTableRecord
100
AcDbTextStyleTableRecord
  2
STANDARD
 70
     0
 40
0.0
 41
1.0
 50
0.0
 71
     0
 42
0.2
  3
txt
  4

  0
STYLE
  5
5E
330
3
100
AcDbSymbolTableRecord
100
AcDbTextStyleTableRecord
  2
FDASTYLE0
 70
     0
 40
4.0
 41
0.7499999999999998
 50
0.0
 71
     0
 42
0.2
  3
txt.shx
  4
bigfont
  0
ENDTAB
  0
TABLE
  2
VIEW
  5
6
330
0
100
AcDbSymbolTable
 70
     0
  0
ENDTAB
  0
TABLE
  2
UCS
  5
7
330
0
100
AcDbSymbolTable
 70
     0
  0
ENDTAB
  0
TABLE
  2
APPID
  5
9
330
0
100
AcDbSymbolTable
 70
     2
  0
APPID
  5
12
330
9
100
AcDbSymbolTableRecord
100
AcDbRegAppTableRecord
  2
ACAD
 70
     0
  0
APPID
  5
2A
330
9
100
AcDbSymbolTableRecord
100
AcDbRegAppTableRecord
  2
DAFUSIONOUT
 70
     0
  0
ENDTAB
  0
TABLE
  2
DIMSTYLE
  5
A
330
0
100
AcDbSymbolTable
 70
     1
  0
DIMSTYLE
105
27
330
A
100
AcDbSymbolTableRecord
100
AcDbDimStyleTableRecord
  2
STANDARD
 70
     0
  3

  4

  5

  6

  7

 40
1.0
 41
0.18
 42
0.0625
 43
0.38
 44
0.18
 45
0.0
 46
0.0
 47
0.0
 48
0.0
140
0.18
141
0.09
142
0.0
143
25.4
144
1.0
145
0.0
146
1.0
147
0.09
 71
     0
 72
     0
 73
     1
 74
     1
 75
     0
 76
     0
 77
     0
 78
     0
170
     0
171
     2
172
     0
173
     0
174
     0
175
     0
176
     0
177
     0
178
     0
270
     2
271
     4
272
     4
273
     2
274
     2
340
11
275
     0
280
     0
281
     0
282
     0
283
     1
284
     0
285
     0
286
     0
287
     3
288
     0
  0
ENDTAB
  0
TABLE
  2
BLOCK_RECORD
  5
1
330
0
100
AcDbSymbolTable
 70
     7
  0
BLOCK_RECORD
  5
1F
330
1
100
AcDbSymbolTableRecord
100
AcDbBlockTableRecord
  2
*MODEL_SPACE
  0
BLOCK_RECORD
  5
1B
330
1
100
AcDbSymbolTableRecord
100
AcDbBlockTableRecord
  2
*PAPER_SPACE
  0
BLOCK_RECORD
  5
47
330
1
100
AcDbSymbolTableRecord
100
AcDbBlockTableRecord
  2
DA_IMAGEDIMGROUP_1
  0
BLOCK_RECORD
  5
4A
330
1
100
AcDbSymbolTableRecord
100
AcDbBlockTableRecord
  2
DA_IMAGEDIMGROUP_2
  0
BLOCK_RECORD
  5
4D
330
1
100
AcDbSymbolTableRecord
100
AcDbBlockTableRecord
  2
DA_IMAGEDIMGROUP_3
  0
BLOCK_RECORD
  5
50
330
1
100
AcDbSymbolTableRecord
100
AcDbBlockTableRecord
  2
DA_IMAGEDIMGROUP_4
  0
BLOCK_RECORD
  5
55
330
1
100
AcDbSymbolTableRecord
100
AcDbBlockTableRecord
  2
_OPEN30
  0
BLOCK_RECORD
  5
BB
330
1
100
AcDbSymbolTableRecord
100
AcDbBlockTableRecord
  2
_DOT
  0
ENDTAB
  0
ENDSEC
  0
SECTION
  2
BLOCKS
  0
BLOCK
  5
20
330
1F
100
AcDbEntity
  8
0
100
AcDbBlockBegin
  2
*MODEL_SPACE
 70
     0
 71
     0
 10
0.0
 20
0.0
 30
0.0
  3
*MODEL_SPACE
  1

  0
ENDBLK
  5
21
330
1F
100
AcDbEntity
  8
0
100
AcDbBlockEnd
  0
BLOCK
  5
1C
330
1B
100
AcDbEntity
 67
     1
  8
0
100
AcDbBlockBegin
  2
*PAPER_SPACE
 70
     0
 71
     0
 10
0.0
 20
0.0
 30
0.0
  3
*PAPER_SPACE
  1

  0
ENDBLK
  5
1D
330
1B
100
AcDbEntity
 67
     1
  8
0
100
AcDbBlockEnd
  0
BLOCK
  5
48
330
47
100
AcDbEntity
  8
0
100
AcDbBlockBegin
  2
DA_IMAGEDIMGROUP_1
 70
     0
 71
     0
 10
0.0
 20
0.0
 30
0.0
  3
DA_IMAGEDIMGROUP_1
  1

  0
LINE
  5
53
330
47
100
AcDbEntity
  8
0
  6
CONTINUOUS
 62
     9
100
AcDbLine
 10
40.07309924168383
 20
-11.7191097317791
 30
0.0
 11
40.07309924168383
 21
4.280889731779102
 31
0.0
  0
LINE
  5
54
330
47
100
AcDbEntity
  8
0
  6
CONTINUOUS
 62
     9
100
AcDbLine
 10
40.07309924168384
 20
-34.0808897317791
 30
0.0
 11
40.07309924168383
 21
-11.7191097317791
 31
0.0
  0
INSERT
  5
5B
330
47
100
AcDbEntity
  8
0
 62
     9
100
AcDbBlockReference
  2
_OPEN30
 10
40.07309924168383
 20
-11.7191097317791
 30
0.0
 41
3.000002787824364
 42
2.999989273978464
 50
90.00000000000001
  0
LINE
  5
5C
330
47
100
AcDbEntity
  8
0
  6
CONTINUOUS
 62
     9
100
AcDbLine
 10
40.07309924168383
 20
9.280889731779102
 30
0.0
 11
40.07309924168383
 21
4.280889731779102
 31
0.0
  0
INSERT
  5
5D
330
47
100
AcDbEntity
  8
0
 62
     9
100
AcDbBlockReference
  2
_OPEN30
 10
40.07309924168383
 20
4.280889731779102
 30
0.0
 41
3.000002787824364
 42
2.999989273978464
 50
270.0
  0
TEXT
  5
5F
330
47
100
AcDbEntity
  8
0
 62
     7
100
AcDbText
 10
39.07309924168383
 20
-33.0808897317791
 30
0.0
 40
4.0
  1
φ16
 50
90.0
 41
0.7499999999999998
  7
FDASTYLE0
 72
     5
 11
39.07309924168383
 21
-23.4808897317791
 31
0.0
100
AcDbText
  0
TEXT
  5
60
330
47
100
AcDbEntity
  8
0
 62
     7
100
AcDbText
 10
36.47309924168383
 20
-22.4808897317791
 30
0.0
 40
2.6
  1
±0.2
 50
90.0
 41
0.7619047619047619
  7
FDASTYLE0
 72
     5
 11
36.47309924168383
 21
-14.1608897317791
 31
0.0
100
AcDbText
  0
ENDBLK
  5
49
330
47
100
AcDbEntity
  8
0
100
AcDbBlockEnd
  0
BLOCK
  5
4B
330
4A
100
AcDbEntity
  8
0
100
AcDbBlockBegin
  2
DA_IMAGEDIMGROUP_2
 70
     0
 71
     0
 10
0.0
 20
0.0
 30
0.0
  3
DA_IMAGEDIMGROUP_2
  1

  0
LINE
  5
61
330
4A
100
AcDbEntity
  8
0
  6
CONTINUOUS
 62
     9
100
AcDbLine
 10
52.37500047683715
 20
-8.319109886751161
 30
0.0
 11
62.37500047683715
 21
-8.319109886751161
 31
0.0
  0
LINE
  5
62
330
4A
100
AcDbEntity
  8
0
  6
CONTINUOUS
 62
     9
100
AcDbLine
 10
52.37500047683715
 20
0.8808898867511807
 30
0.0
 11
62.37500047683715
 21
0.8808898867511807
 31
0.0
  0
LINE
  5
63
330
4A
100
AcDbEntity
  8
0
  6
CONTINUOUS
 62
     9
100
AcDbLine
 10
61.37500047683715
 20
-8.319109886751161
 30
0.0
 11
61.37500047683715
 21
0.8808898867511807
 31
0.0
  0
INSERT
  5
64
330
4A
100
AcDbEntity
  8
0
 62
     9
100
AcDbBlockReference
  2
_OPEN30
 10
61.37500047683715
 20
-8.319109886751161
 30
0.0
 41
3.000002787824364
 42
2.999989273978464
 50
270.0
  0
INSERT
  5
65
330
4A
100
AcDbEntity
  8
0
 62
     9
100
AcDbBlockReference
  2
_OPEN30
 10
61.37500047683715
 20
0.8808898867511807
 30
0.0
 41
3.000002787824364
 42
2.999989273978464
 50
90.0
  0
TEXT
  5
66
330
4A
100
AcDbEntity
  8
0
 62
     7
100
AcDbText
 10
60.37500047683715
 20
-8.519109999999994
 30
0.0
 40
4.0
  1
9.2
 50
90.0
 41
0.8000000000000007
  7
FDASTYLE0
 72
     5
 11
60.37500047683715
 21
1.080890000000014
 31
0.0
100
AcDbText
  0
ENDBLK
  5
4C
330
4A
100
AcDbEntity
  8
0
100
AcDbBlockEnd
  0
BLOCK
  5
4E
330
4D
100
AcDbEntity
  8
0
100
AcDbBlockBegin
  2
DA_IMAGEDIMGROUP_3
 70
     0
 71
     0
 10
0.0
 20
0.0
 30
0.0
  3
DA_IMAGEDIMGROUP_3
  1

  0
LINE
  5
67
330
4D
100
AcDbEntity
  8
0
  6
CONTINUOUS
 62
     9
100
AcDbLine
 10
51.37500047683715
 20
2.180889886751192
 30
0.0
 11
51.37500047683715
 21
29.0808897317791
 31
0.0
  0
LINE
  5
68
330
4D
100
AcDbEntity
  8
0
  6
CONTINUOUS
 62
     9
100
AcDbLine
 10
46.37499952316284
 20
4.344090000000026
 30
0.0
 11
46.37499952316284
 21
29.0808897317791
 31
0.0
  0
LINE
  5
69
330
4D
100
AcDbEntity
  8
0
  6
CONTINUOUS
 62
     9
100
AcDbLine
 10
46.37499952316284
 20
28.0808897317791
 30
0.0
 11
51.37500047683715
 21
28.0808897317791
 31
0.0
  0
LINE
  5
6A
330
4D
100
AcDbEntity
  8
0
  6
CONTINUOUS
 62
     9
100
AcDbLine
 10
56.37500047683715
 20
28.0808897317791
 30
0.0
 11
51.37500047683715
 21
28.0808897317791
 31
0.0
  0
INSERT
  5
6B
330
4D
100
AcDbEntity
  8
0
 62
     9
100
AcDbBlockReference
  2
_OPEN30
 10
51.37500047683715
 20
28.0808897317791
 30
0.0
 41
3.000002787824364
 42
2.999989273978464
 50
180.0
  0
LINE
  5
6C
330
4D
100
AcDbEntity
  8
0
  6
CONTINUOUS
 62
     9
100
AcDbLine
 10
41.37499952316284
 20
28.0808897317791
 30
0.0
 11
46.37499952316284
 21
28.0808897317791
 31
0.0
  0
INSERT
  5
6D
330
4D
100
AcDbEntity
  8
0
 62
     9
100
AcDbBlockReference
  2
_OPEN30
 10
46.37499952316284
 20
28.0808897317791
 30
0.0
 41
3.000002787824364
 42
2.999989273978464
 50
360.0
  0
TEXT
  5
6E
330
4D
100
AcDbEntity
  8
0
 62
     7
100
AcDbText
 10
47.27499999999999
 20
29.0808897317791
 30
0.0
 40
4.0
  1
5
 41
0.8000000000000007
  7
FDASTYLE0
 72
     5
 11
50.47499999999999
 21
29.0808897317791
 31
0.0
100
AcDbText
  0
ENDBLK
  5
4F
330
4D
100
AcDbEntity
  8
0
100
AcDbBlockEnd
  0
BLOCK
  5
51
330
50
100
AcDbEntity
  8
0
100
AcDbBlockBegin
  2
DA_IMAGEDIMGROUP_4
 70
     0
 71
     0
 10
0.0
 20
0.0
 30
0.0
  3
DA_IMAGEDIMGROUP_4
  1

  0
LINE
  5
6F
330
50
100
AcDbEntity
  8
0
  6
CONTINUOUS
 62
     9
100
AcDbLine
 10
-66.87500047683716
 20
-9.219110000000017
 30
0.0
 11
-83.37500047683716
 21
-9.219110000000017
 31
0.0
  0
LINE
  5
70
330
50
100
AcDbEntity
  8
0
  6
CONTINUOUS
 62
     9
100
AcDbLine
 10
-66.87500047683716
 20
1.780889999999976
 30
0.0
 11
-83.37500047683716
 21
1.780889999999976
 31
0.0
  0
LINE
  5
71
330
50
100
AcDbEntity
  8
0
  6
CONTINUOUS
 62
     9
100
AcDbLine
 10
-82.37500047683716
 20
-9.219110000000017
 30
0.0
 11
-82.37500047683716
 21
1.780889999999976
 31
0.0
  0
LINE
  5
72
330
50
100
AcDbEntity
  8
0
  6
CONTINUOUS
 62
     9
100
AcDbLine
 10
-82.37500047683716
 20
6.780889999999976
 30
0.0
 11
-82.37500047683716
 21
1.780889999999976
 31
0.0
  0
INSERT
  5
73
330
50
100
AcDbEntity
  8
0
 62
     9
100
AcDbBlockReference
  2
_OPEN30
 10
-82.37500047683716
 20
1.780889999999976
 30
0.0
 41
3.000002787824364
 42
2.999989273978464
 50
270.0
  0
LINE
  5
74
330
50
100
AcDbEntity
  8
0
  6
CONTINUOUS
 62
     9
100
AcDbLine
 10
-82.37500047683716
 20
-14.21911000000002
 30
0.0
 11
-82.37500047683716
 21
-9.219110000000017
 31
0.0
  0
INSERT
  5
75
330
50
100
AcDbEntity
  8
0
 62
     9
100
AcDbBlockReference
  2
_OPEN30
 10
-82.37500047683716
 20
-9.219110000000017
 30
0.0
 41
3.000002787824364
 42
2.999989273978464
 50
90.0
  0
TEXT
  5
76
330
50
100
AcDbEntity
  8
0
 62
     7
100
AcDbText
 10
-83.37500047683716
 20
-11.57911000000002
 30
0.0
 40
4.0
  1
11
 50
90.0
 41
0.8000000000000007
  7
FDASTYLE0
 72
     5
 11
-83.37500047683716
 21
-5.179110000000012
 31
0.0
100
AcDbText
  0
TEXT
  5
77
330
50
100
AcDbEntity
  8
0
 62
     7
100
AcDbText
 10
-85.97500047683715
 20
-4.179110000000012
 30
0.0
 40
2.6
  1
±0.2
 50
90.0
 41
0.7619047619047612
  7
FDASTYLE0
 72
     5
 11
-85.97500047683715
 21
4.140889999999981
 31
0.0
100
AcDbText
  0
ENDBLK
  5
52
330
50
100
AcDbEntity
  8
0
100
AcDbBlockEnd
  0
BLOCK
  5
56
330
55
100
AcDbEntity
  8
0
100
AcDbBlockBegin
  2
_OPEN30
 70
     0
 71
     0
 10
0.0
 20
0.0
 30
0.0
  3
_OPEN30
  1

  0
LINE
  5
58
330
55
100
AcDbEntity
  8
0
  6
BYBLOCK
 62
     0
100
AcDbLine
 10
-1.0
 20
0.267949
 30
0.0
 11
0.0
 21
0.0
 31
0.0
  0
LINE
  5
59
330
55
100
AcDbEntity
  8
0
  6
BYBLOCK
 62
     0
100
AcDbLine
 10
0.0
 20
0.0
 30
0.0
 11
-1.0
 21
-0.267949
 31
0.0
  0
LINE
  5
5A
330
55
100
AcDbEntity
  8
0
  6
BYBLOCK
 62
     0
100
AcDbLine
 10
0.0
 20
0.0
 30
0.0
 11
-1.0
 21
0.0
 31
0.0
  0
ENDBLK
  5
57
330
55
100
AcDbEntity
  8
0
100
AcDbBlockEnd
  0
BLOCK
  5
BC
330
BB
100
AcDbEntity
  8
0
100
AcDbBlockBegin
  2
_DOT
 70
     0
 71
     0
 10
0.0
 20
0.0
 30
0.0
  3
_DOT
  1

  0
LWPOLYLINE
  5
BE
330
BB
100
AcDbEntity
  8
0
  6
BYBLOCK
 62
     0
100
AcDbPolyline
 90
        2
 70
     1
 43
0.5
 10
-0.25
 20
0.0
 42
1.0
 10
0.25
 20
0.0
 42
1.0
  0
LINE
  5
BF
330
BB
100
AcDbEntity
  8
0
  6
BYBLOCK
 62
     0
100
AcDbLine
 10
-0.5
 20
0.0
 30
0.0
 11
-1.0
 21
0.0
 31
0.0
  0
ENDBLK
  5
BD
330
BB
100
AcDbEntity
  8
0
100
AcDbBlockEnd
  0
ENDSEC
  0
SECTION
  2
ENTITIES
  0
LINE
  5
78
330
1F
100
AcDbEntity
  8
0
  6
CONTINUOUS
 62
     3
100
AcDbLine
 10
21.37499952316281
 20
-11.51910973177907
 30
0.0
 11
21.37499952316283
 21
4.0808897317791
 31
0.0
  0
CIRCLE
  5
79
330
1F
100
AcDbEntity
  8
0
  6
CONTINUOUS
 62
     3
100
AcDbCircle
 10
-64.37500047683716
 20
-3.719110000000017
 30
0.0
 40
8.0
  0
CIRCLE
  5
7A
330
1F
100
AcDbEntity
  8
0
  6
CONTINUOUS
 62
     3
100
AcDbCircle
 10
-64.37500047683716
 20
-3.71911000000002
 30
0.0
 40
3.5
  0
CIRCLE
  5
7B
330
1F
100
AcDbEntity
  8
0
  6
CONTINUOUS
 62
     3
100
AcDbCircle
 10
-64.37500047683716
 20
-3.71911000000002
 30
0.0
 40
2.830000000000012
  0
CIRCLE
  5
7C
330
1F
100
AcDbEntity
  8
0
  6
CONTINUOUS
 62
     3
100
AcDbCircle
 10
-64.37500047683716
 20
-3.719110000000017
 30
0.0
 40
1.5
  0
LINE
  5
7D
330
1F
100
AcDbEntity
  8
0
  6
CONTINUOUS
 62
     3
100
AcDbLine
 10
-63.25696648808718
 20
-2.719110000000024
 30
0.0
 11
-65.49303446558699
 21
-2.719110000000024
 31
0.0
  0
ARC
  5
7E
330
1F
100
AcDbEntity
  8
0
  6
CONTINUOUS
 62
     3
100
AcDbCircle
 10
-59.21871056616204
 20
-3.719110000000017
 30
0.0
 40
1.517133828918631
100
AcDbArc
 50
140.5375476204033
 51
219.462452379598
  0
ARC
  5
7F
330
1F
100
AcDbEntity
  8
0
  6
CONTINUOUS
 62
     3
100
AcDbCircle
 10
-59.37500047683715
 20
-3.719110000000017
 30
0.0
 40
1.4
100
AcDbArc
 50
223.5311521673716
 51
496.4688478326297
  0
LINE
  5
80
330
1F
100
AcDbEntity
  8
0
  6
CONTINUOUS
 62
     3
100
AcDbLine
 10
-59.22500047683715
 20
-2.719110000000013
 30
0.0
 11
-59.22500047683715
 21
-3.569110000000018
 31
0.0
  0
LINE
  5
81
330
1F
100
AcDbEntity
  8
0
  6
CONTINUOUS
 62
     3
100
AcDbLine
 10
-59.52500047683714
 20
-3.569110000000018
 30
0.0
 11
-59.52500047683714
 21
-2.719110000000013
 31
0.0
  0
LINE
  5
82
330
1F
100
AcDbEntity
  8
0
  6
CONTINUOUS
 62
     3
100
AcDbLine
 10
-59.53027918234816
 20
-2.719110000000013
 30
0.0
 11
-59.22500047683715
 21
-2.719110000000013
 31
0.0
  0
LINE
  5
83
330
1F
100
AcDbEntity
  8
0
  6
CONTINUOUS
 62
     3
100
AcDbLine
 10
-58.37500047683715
 20
-3.869110000000015
 30
0.0
 11
-59.22500047683715
 21
-3.869110000000015
 31
0.0
  0
LINE
  5
84
330
1F
100
AcDbEntity
  8
0
  6
CONTINUOUS
 62
     3
100
AcDbLine
 10
-59.22500047683715
 20
-3.569110000000018
 30
0.0
 11
-58.37500047683715
 21
-3.569110000000018
 31
0.0
  0
LINE
  5
85
330
1F
100
AcDbEntity
  8
0
  6
CONTINUOUS
 62
     3
100
AcDbLine
 10
-58.37500047683715
 20
-3.563831294489011
 30
0.0
 11
-58.37500047683715
 21
-3.869110000000015
 31
0.0
  0
LINE
  5
86
330
1F
100
AcDbEntity
  8
0
  6
CONTINUOUS
 62
     3
100
AcDbLine
 10
-59.52500047683714
 20
-4.71911000000002
 30
0.0
 11
-59.52500047683714
 21
-3.869110000000015
 31
0.0
  0
LINE
  5
87
330
1F
100
AcDbEntity
  8
0
  6
CONTINUOUS
 62
     3
100
AcDbLine
 10
-59.22500047683715
 20
-3.869110000000015
 30
0.0
 11
-59.22500047683715
 21
-4.71911000000002
 31
0.0
  0
LINE
  5
88
330
1F
100
AcDbEntity
  8
0
  6
CONTINUOUS
 62
     3
100
AcDbLine
 10
-59.21972177132614
 20
-4.71911000000002
 30
0.0
 11
-59.52500047683714
 21
-4.71911000000002
 31
0.0
  0
LINE
  5
89
330
1F
100
AcDbEntity
  8
0
  6
CONTINUOUS
 62
     3
100
AcDbLine
 10
-60.37500047683715
 20
-3.569110000000018
 30
0.0
 11
-59.52500047683714
 21
-3.569110000000018
 31
0.0
  0
LINE
  5
8A
330
1F
100
AcDbEntity
  8
0
  6
CONTINUOUS
 62
     3
100
AcDbLine
 10
-59.52500047683714
 20
-3.869110000000015
 30
0.0
 11
-60.37500047683715
 21
-3.869110000000015
 31
0.0
  0
LINE
  5
8B
330
1F
100
AcDbEntity
  8
0
  6
CONTINUOUS
 62
     3
100
AcDbLine
 10
-60.37500047683715
 20
-3.874388705511022
 30
0.0
 11
-60.37500047683715
 21
-3.569110000000018
 31
0.0
  0
ARC
  5
8C
330
1F
100
AcDbEntity
  8
0
  6
CONTINUOUS
 62
     3
100
AcDbCircle
 10
-69.53129038751226
 20
-3.719110000000017
 30
0.0
 40
1.517133828918631
100
AcDbArc
 50
320.5375476204019
 51
399.4624523795967
  0
ARC
  5
8D
330
1F
100
AcDbEntity
  8
0
  6
CONTINUOUS
 62
     3
100
AcDbCircle
 10
-69.37500047683716
 20
-3.719110000000017
 30
0.0
 40
1.4
100
AcDbArc
 50
43.53115216737035
 51
316.4688478326284
  0
LINE
  5
8E
330
1F
100
AcDbEntity
  8
0
  6
CONTINUOUS
 62
     3
100
AcDbLine
 10
-69.52500047683714
 20
-2.719110000000013
 30
0.0
 11
-69.52500047683714
 21
-3.569110000000018
 31
0.0
  0
LINE
  5
8F
330
1F
100
AcDbEntity
  8
0
  6
CONTINUOUS
 62
     3
100
AcDbLine
 10
-69.22500047683715
 20
-3.569110000000018
 30
0.0
 11
-69.22500047683715
 21
-2.719110000000013
 31
0.0
  0
LINE
  5
90
330
1F
100
AcDbEntity
  8
0
  6
CONTINUOUS
 62
     3
100
AcDbLine
 10
-69.21972177132614
 20
-2.719110000000013
 30
0.0
 11
-69.52500047683714
 21
-2.719110000000013
 31
0.0
  0
LINE
  5
91
330
1F
100
AcDbEntity
  8
0
  6
CONTINUOUS
 62
     3
100
AcDbLine
 10
-70.37500047683716
 20
-3.869110000000015
 30
0.0
 11
-69.52500047683714
 21
-3.869110000000015
 31
0.0
  0
LINE
  5
92
330
1F
100
AcDbEntity
  8
0
  6
CONTINUOUS
 62
     3
100
AcDbLine
 10
-69.52500047683714
 20
-3.569110000000018
 30
0.0
 11
-70.37500047683716
 21
-3.569110000000018
 31
0.0
  0
LINE
  5
93
330
1F
100
AcDbEntity
  8
0
  6
CONTINUOUS
 62
     3
100
AcDbLine
 10
-70.37500047683716
 20
-3.563831294489011
 30
0.0
 11
-70.37500047683716
 21
-3.869110000000015
 31
0.0
  0
LINE
  5
94
330
1F
100
AcDbEntity
  8
0
  6
CONTINUOUS
 62
     3
100
AcDbLine
 10
-69.22500047683715
 20
-4.71911000000002
 30
0.0
 11
-69.22500047683715
 21
-3.869110000000015
 31
0.0
  0
LINE
  5
95
330
1F
100
AcDbEntity
  8
0
  6
CONTINUOUS
 62
     3
100
AcDbLine
 10
-69.52500047683714
 20
-3.869110000000015
 30
0.0
 11
-69.52500047683714
 21
-4.71911000000002
 31
0.0
  0
LINE
  5
96
330
1F
100
AcDbEntity
  8
0
  6
CONTINUOUS
 62
     3
100
AcDbLine
 10
-69.53027918234815
 20
-4.71911000000002
 30
0.0
 11
-69.22500047683715
 21
-4.71911000000002
 31
0.0
  0
LINE
  5
97
330
1F
100
AcDbEntity
  8
0
  6
CONTINUOUS
 62
     3
100
AcDbLine
 10
-68.37500047683716
 20
-3.569110000000018
 30
0.0
 11
-69.22500047683715
 21
-3.569110000000018
 31
0.0
  0
LINE
  5
98
330
1F
100
AcDbEntity
  8
0
  6
CONTINUOUS
 62
     3
100
AcDbLine
 10
-69.22500047683715
 20
-3.869110000000015
 30
0.0
 11
-68.37500047683716
 21
-3.869110000000015
 31
0.0
  0
LINE
  5
99
330
1F
100
AcDbEntity
  8
0
  6
CONTINUOUS
 62
     3
100
AcDbLine
 10
-68.37500047683716
 20
-3.874388705511022
 30
0.0
 11
-68.37500047683716
 21
-3.569110000000018
 31
0.0
  0
LINE
  5
9A
330
1F
100
AcDbEntity
  8
0
  6
CONTINUOUS
 62
     3
100
AcDbLine
 10
1.124999523162849
 20
-6.949110000000031
 30
0.0
 11
1.124999523162849
 21
-0.4891099999999948
 31
0.0
  0
LINE
  5
9B
330
1F
100
AcDbEntity
  8
0
  6
CONTINUOUS
 62
     3
100
AcDbLine
 10
3.624999523162799
 20
-0.2191099999999988
 30
0.0
 11
2.274999523162798
 21
-0.2191099999999988
 31
0.0
  0
LINE
  5
9C
330
1F
100
AcDbEntity
  8
0
  6
CONTINUOUS
 62
     3
100
AcDbLine
 10
1.124999523162849
 20
-0.4891099999999948
 30
0.0
 11
2.024999523162798
 21
-0.4891099999999948
 31
0.0
  0
LINE
  5
9D
330
1F
100
AcDbEntity
  8
0
  6
CONTINUOUS
 62
     3
100
AcDbLine
 10
3.624999523162806
 20
-7.21911000000002
 30
0.0
 11
2.274999523162801
 21
-7.21911000000002
 31
0.0
  0
LINE
  5
9E
330
1F
100
AcDbEntity
  8
0
  6
CONTINUOUS
 62
     3
100
AcDbLine
 10
2.024999523162798
 20
-0.4691099999999988
 30
0.0
 11
2.024999523162798
 21
-6.96911000000002
 31
0.0
  0
ARC
  5
9F
330
1F
100
AcDbEntity
  8
0
  6
CONTINUOUS
 62
     3
100
AcDbCircle
 10
2.274999523162798
 20
-0.4691099999999988
 30
0.0
 40
0.25
100
AcDbArc
 50
90.0
 51
180.0
  0
LINE
  5
A0
330
1F
100
AcDbEntity
  8
0
  6
CONTINUOUS
 62
     3
100
AcDbLine
 10
1.124999523162853
 20
-6.949110000000024
 30
0.0
 11
2.024999523162801
 21
-6.949110000000024
 31
0.0
  0
ARC
  5
A1
330
1F
100
AcDbEntity
  8
0
  6
CONTINUOUS
 62
     3
100
AcDbCircle
 10
2.274999523162801
 20
-6.96911000000002
 30
0.0
 40
0.25
100
AcDbArc
 50
180.0
 51
270.0000000000001
  0
LINE
  5
A2
330
1F
100
AcDbEntity
  8
0
  6
CONTINUOUS
 62
     3
100
AcDbLine
 10
1.124999523162849
 20
-2.219110000000013
 30
0.0
 11
-1.375000476837151
 21
-2.21911000000002
 31
0.0
  0
LINE
  5
A3
330
1F
100
AcDbEntity
  8
0
  6
CONTINUOUS
 62
     3
100
AcDbLine
 10
-1.375000476837151
 20
-2.71911000000001
 30
0.0
 11
-1.375000476837151
 21
-2.21911000000002
 31
0.0
  0
LINE
  5
A4
330
1F
100
AcDbEntity
  8
0
  6
CONTINUOUS
 62
     3
100
AcDbLine
 10
1.124999523162849
 20
-5.21911000000001
 30
0.0
 11
-6.075000476837154
 21
-5.219110000000013
 31
0.0
  0
LINE
  5
A5
330
1F
100
AcDbEntity
  8
0
  6
CONTINUOUS
 62
     3
100
AcDbLine
 10
-6.375000476837151
 20
-5.138725242270672
 30
0.0
 11
-6.375000476837151
 21
-2.719110000000013
 31
0.0
  0
LINE
  5
A6
330
1F
100
AcDbEntity
  8
0
  6
CONTINUOUS
 62
     3
100
AcDbLine
 10
-6.375000476837151
 20
-2.719110000000013
 30
0.0
 11
-1.375000476837151
 21
-2.71911000000001
 31
0.0
  0
LINE
  5
A7
330
1F
100
AcDbEntity
  8
0
  6
CONTINUOUS
 62
     3
100
AcDbLine
 10
-6.075000476837197
 20
-5.219109999999995
 30
0.0
 11
-6.375000476837151
 21
-5.138725242270672
 31
0.0
  0
LINE
  5
A8
330
1F
100
AcDbEntity
  8
0
  6
CONTINUOUS
 62
     3
100
AcDbLine
 10
3.624999523162799
 20
-11.01911000000001
 30
0.0
 11
3.624999523162799
 21
3.580889999999988
 31
0.0
  0
ARC
  5
A9
330
1F
100
AcDbEntity
  8
0
  6
CONTINUOUS
 62
     3
100
AcDbCircle
 10
4.324999523162799
 20
-11.01911000000001
 30
0.0
 40
0.7
100
AcDbArc
 50
180.0
 51
270.0
  0
ARC
  5
AA
330
1F
100
AcDbEntity
  8
0
  6
CONTINUOUS
 62
     3
100
AcDbCircle
 10
4.324999523162799
 20
3.580889999999988
 30
0.0
 40
0.7
100
AcDbArc
 50
90.0
 51
180.0
  0
LINE
  5
AB
330
1F
100
AcDbEntity
  8
0
  6
CONTINUOUS
 62
     3
100
AcDbLine
 10
21.37499952316281
 20
4.280889999999991
 30
0.0
 11
4.324999523162799
 21
4.280889999999991
 31
0.0
  0
LINE
  5
AC
330
1F
100
AcDbEntity
  8
0
  6
CONTINUOUS
 62
     3
100
AcDbLine
 10
21.37499952316281
 20
-11.71911000000001
 30
0.0
 11
4.324999523162799
 21
-11.71911000000001
 31
0.0
  0
LINE
  5
AD
330
1F
100
AcDbEntity
  8
0
  6
CONTINUOUS
 62
     3
100
AcDbLine
 10
21.37499952316281
 20
-11.71911000000001
 30
0.0
 11
21.37499952316281
 21
4.280889999999991
 31
0.0
  0
CIRCLE
  5
AE
330
1F
100
AcDbEntity
  8
0
  6
CONTINUOUS
 62
     3
100
AcDbCircle
 10
-64.37500047683716
 20
1.780889999999976
 30
0.0
 40
0.7850000000000001
  0
CIRCLE
  5
AF
330
1F
100
AcDbEntity
  8
0
  6
CONTINUOUS
 62
     3
100
AcDbCircle
 10
-64.37500047683716
 20
-9.21911000000002
 30
0.0
 40
0.7850000000000001
  0
LINE
  5
B0
330
1F
100
AcDbEntity
  8
0
  6
CENTER
 62
     9
100
AcDbLine
 10
48.57499952316285
 20
-3.719109999999985
 30
0.0
 11
-7.375000476837151
 21
-3.719110000000013
 31
0.0
  0
LINE
  5
B1
330
1F
100
AcDbEntity
  8
0
  6
CENTER
 62
     9
100
AcDbLine
 10
-62.87500047683715
 20
1.780889999999976
 30
0.0
 11
-65.87500047683716
 21
1.780889999999976
 31
0.0
  0
LINE
  5
B2
330
1F
100
AcDbEntity
  8
0
  6
CENTER
 62
     9
100
AcDbLine
 10
-65.87500047683716
 20
-9.219110000000017
 30
0.0
 11
-62.87500047683715
 21
-9.21911000000002
 31
0.0
  0
CIRCLE
  5
B3
330
1F
100
AcDbEntity
  8
0
  6
CONTINUOUS
 62
     9
100
AcDbCircle
 10
-64.37500047683716
 20
1.780889999999976
 30
0.0
 40
1.0
  0
CIRCLE
  5
B4
330
1F
100
AcDbEntity
  8
0
  6
CONTINUOUS
 62
     9
100
AcDbCircle
 10
-64.37500047683716
 20
-9.21911000000002
 30
0.0
 40
1.0
  0
LINE
  5
B5
330
1F
100
AcDbEntity
  8
0
  6
CONTINUOUS
 62
     9
100
AcDbLine
 10
-25.74811082396376
 20
-28.51911000000001
 30
0.0
 11
21.37499952316281
 21
-28.51911000000001
 31
0.0
  0
LINE
  5
B6
330
1F
100
AcDbEntity
  8
0
  6
CONTINUOUS
 62
     9
100
AcDbLine
 10
-64.85074440081849
 20
-9.843523900225531
 30
0.0
 11
-72.37500047683716
 21
-19.71911000000001
 31
0.0
  0
INSERT
  5
B7
330
1F
100
AcDbEntity
  8
0
 62
     9
100
AcDbBlockReference
  2
_OPEN30
 10
-64.85074440081849
 20
-9.843523900225531
 30
0.0
 41
3.000002787824364
 42
2.999989273978464
 50
52.69605172201649
  0
LINE
  5
B8
330
1F
100
AcDbEntity
  8
0
  6
CONTINUOUS
 62
     9
100
AcDbLine
 10
75.45160114149623
 20
-8.395219264835781
 30
0.0
 11
71.37500047683716
 21
-19.71911000000003
 31
0.0
  0
INSERT
  5
B9
330
1F
100
AcDbEntity
  8
0
 62
     9
100
AcDbBlockReference
  2
_OPEN30
 10
75.45160114149623
 20
-8.395219264835781
 30
0.0
 41
3.000002787824364
 42
2.999989273978464
 50
70.20112364547533
  0
LINE
  5
BA
330
1F
100
AcDbEntity
  8
0
  6
CONTINUOUS
 62
     9
100
AcDbLine
 10
21.37499952316281
 20
-28.51911000000001
 30
0.0
 11
32.07309924168384
 21
-7.719109865889543
 31
0.0
  0
INSERT
  5
C0
330
1F
100
AcDbEntity
  8
0
 62
     9
100
AcDbBlockReference
  2
_DOT
 10
32.07309924168384
 20
-7.719109865889543
 30
0.0
 41
2.5
 42
2.5
 50
62.78180417469369
  0
LINE
  5
C1
330
1F
100
AcDbEntity
  8
0
  6
DIVIDE
 62
     9
100
AcDbLine
 10
28.07309924168384
 20
4.280889731779102
 30
0.0
 11
28.07309924168384
 21
-11.7191097317791
 31
0.0
  0
LINE
  5
C2
330
1F
100
AcDbEntity
  8
0
  6
DIVIDE
 62
     9
100
AcDbLine
 10
44.07309924168383
 20
4.280889731779102
 30
0.0
 11
44.07309924168383
 21
-11.7191097317791
 31
0.0
  0
LINE
  5
C3
330
1F
100
AcDbEntity
  8
0
  6
CONTINUOUS
 62
     9
100
AcDbLine
 10
-72.37500047683716
 20
-19.71911000000001
 30
0.0
 11
-2.419911329556634
 21
-19.71911000000001
 31
0.0
  0
LINE
  5
C4
330
1F
100
AcDbEntity
  8
0
  6
CONTINUOUS
 62
     9
100
AcDbLine
 10
-7.375000476837151
 20
-2.719110000000013
 30
0.0
 11
-17.37500047683715
 21
-2.719110000000013
 31
0.0
  0
LINE
  5
C5
330
1F
100
AcDbEntity
  8
0
  6
CONTINUOUS
 62
     9
100
AcDbLine
 10
-7.075000476837154
 20
-5.219110000000013
 30
0.0
 11
-27.37500047683715
 21
-5.219110000000013
 31
0.0
  0
LINE
  5
C6
330
1F
100
AcDbEntity
  8
0
  6
CONTINUOUS
 62
     9
100
AcDbLine
 10
-16.37500047683715
 20
-5.219110000000013
 30
0.0
 11
-16.37500047683715
 21
-2.719110000000013
 31
0.0
  0
LINE
  5
C7
330
1F
100
AcDbEntity
  8
0
  6
CONTINUOUS
 62
     9
100
AcDbLine
 10
-7.075000476837197
 20
-5.219109999999995
 30
0.0
 11
-27.37500047683715
 21
-5.219109999999995
 31
0.0
  0
LINE
  5
C8
330
1F
100
AcDbEntity
  8
0
  6
CONTINUOUS
 62
     9
100
AcDbLine
 10
-2.375000476837151
 20
-2.21911000000002
 30
0.0
 11
-27.37500047683715
 21
-2.21911000000002
 31
0.0
  0
LINE
  5
C9
330
1F
100
AcDbEntity
  8
0
  6
CONTINUOUS
 62
     9
100
AcDbLine
 10
-26.37500047683715
 20
-5.219109999999995
 30
0.0
 11
-26.37500047683715
 21
-2.21911000000002
 31
0.0
  0
LINE
  5
CA
330
1F
100
AcDbEntity
  8
0
  6
CONTINUOUS
 62
     9
100
AcDbLine
 10
1.274999523162798
 20
-0.2191099999999988
 30
0.0
 11
-37.37500047683715
 21
-0.2191099999999988
 31
0.0
  0
LINE
  5
CB
330
1F
100
AcDbEntity
  8
0
  6
CONTINUOUS
 62
     9
100
AcDbLine
 10
1.274999523162801
 20
-7.21911000000002
 30
0.0
 11
-37.37500047683715
 21
-7.21911000000002
 31
0.0
  0
LINE
  5
CC
330
1F
100
AcDbEntity
  8
0
  6
CONTINUOUS
 62
     9
100
AcDbLine
 10
-36.37500047683715
 20
-7.21911000000002
 30
0.0
 11
-36.37500047683715
 21
-0.2191099999999988
 31
0.0
  0
LINE
  5
CD
330
1F
100
AcDbEntity
  8
0
  6
CONTINUOUS
 62
     9
100
AcDbLine
 10
3.324999523162799
 20
-11.71911
 30
0.0
 11
-47.37500047683715
 21
-11.71911
 31
0.0
  0
LINE
  5
CE
330
1F
100
AcDbEntity
  8
0
  6
CONTINUOUS
 62
     9
100
AcDbLine
 10
3.324999523162799
 20
4.280889999999991
 30
0.0
 11
-47.37500047683715
 21
4.280889999999991
 31
0.0
  0
LINE
  5
CF
330
1F
100
AcDbEntity
  8
0
  6
CONTINUOUS
 62
     9
100
AcDbLine
 10
-6.375000476837151
 20
-1.719110000000013
 30
0.0
 11
-6.375000476837151
 21
14.08088973177909
 31
0.0
  0
LINE
  5
D0
330
1F
100
AcDbEntity
  8
0
  6
CONTINUOUS
 62
     9
100
AcDbLine
 10
-1.375000476837151
 20
-1.21911000000002
 30
0.0
 11
-1.375000476837151
 21
13.0808897317791
 31
0.0
  0
LINE
  5
D1
330
1F
100
AcDbEntity
  8
0
  6
CONTINUOUS
 62
     9
100
AcDbLine
 10
-6.375000476837151
 20
12.0808897317791
 30
0.0
 11
-1.375000476837151
 21
12.0808897317791
 31
0.0
  0
LINE
  5
D2
330
1F
100
AcDbEntity
  8
0
  6
CONTINUOUS
 62
     9
100
AcDbLine
 10
-6.375000476837151
 20
-1.719110000000013
 30
0.0
 11
-6.375000476837151
 21
29.0808897317791
 31
0.0
  0
LINE
  5
D3
330
1F
100
AcDbEntity
  8
0
  6
CONTINUOUS
 62
     9
100
AcDbLine
 10
3.624999523162799
 20
4.580889999999988
 30
0.0
 11
3.624999523162799
 21
29.0808897317791
 31
0.0
  0
LINE
  5
D4
330
1F
100
AcDbEntity
  8
0
  6
CONTINUOUS
 62
     9
100
AcDbLine
 10
1.124999523162849
 20
0.510890000000007
 30
0.0
 11
1.124999523162853
 21
21.0808897317791
 31
0.0
  0
LINE
  5
D5
330
1F
100
AcDbEntity
  8
0
  6
CONTINUOUS
 62
     9
100
AcDbLine
 10
1.124999523162853
 20
20.0808897317791
 30
0.0
 11
3.624999523162799
 21
20.0808897317791
 31
0.0
  0
LINE
  5
D6
330
1F
100
AcDbEntity
  8
0
  6
CONTINUOUS
 62
     9
100
AcDbLine
 10
75.62500047683716
 20
-7.469109999999871
 30
0.0
 11
74.65025560544555
 21
-7.469109999999871
 31
0.0
  0
LINE
  5
D7
330
1F
100
AcDbEntity
  8
0
  6
CONTINUOUS
 62
     9
100
AcDbLine
 10
75.62500047683716
 20
-8.44385487139145
 30
0.0
 11
75.62500047683716
 21
-7.469109999999871
 31
0.0
  0
LINE
  5
D8
330
1F
100
AcDbEntity
  8
0
  6
CONTINUOUS
 62
     9
100
AcDbLine
 10
75.62500047683716
 20
-6.969109999999871
 30
0.0
 11
75.62500047683716
 21
-5.994365128608278
 31
0.0
  0
LINE
  5
D9
330
1F
100
AcDbEntity
  8
0
  6
CONTINUOUS
 62
     9
100
AcDbLine
 10
76.12500047683716
 20
-5.994365128608278
 30
0.0
 11
76.12500047683716
 21
-6.969109999999871
 31
0.0
  0
LINE
  5
DA
330
1F
100
AcDbEntity
  8
0
  6
CONTINUOUS
 62
     9
100
AcDbLine
 10
76.12500047683716
 20
-7.469109999999871
 30
0.0
 11
76.12500047683716
 21
-8.44385487139145
 31
0.0
  0
LINE
  5
DB
330
1F
100
AcDbEntity
  8
0
  6
CONTINUOUS
 62
     9
100
AcDbLine
 10
74.65025560544555
 20
-6.969109999999871
 30
0.0
 11
75.62500047683716
 21
-6.969109999999871
 31
0.0
  0
LINE
  5
DC
330
1F
100
AcDbEntity
  8
0
  6
CONTINUOUS
 62
     9
100
AcDbLine
 10
77.09974534822874
 20
-7.469109999999871
 30
0.0
 11
76.12500047683716
 21
-7.469109999999871
 31
0.0
  0
LINE
  5
DD
330
1F
100
AcDbEntity
  8
0
  6
CONTINUOUS
 62
     9
100
AcDbLine
 10
76.12500047683716
 20
-6.969109999999871
 30
0.0
 11
77.09974534822874
 21
-6.969109999999871
 31
0.0
  0
CIRCLE
  5
DE
330
1F
100
AcDbEntity
  8
0
  6
CONTINUOUS
 62
     9
100
AcDbCircle
 10
75.87500047683716
 20
-7.219109999999871
 30
0.0
 40
1.25
  0
LINE
  5
DF
330
1F
100
AcDbEntity
  8
0
  6
CONTINUOUS
 62
     9
100
AcDbLine
 10
49.42064465786278
 20
-19.71911000000003
 30
0.0
 11
71.37500047683716
 21
-19.71911000000003
 31
0.0
  0
LINE
  5
E0
330
1F
100
AcDbEntity
  8
0
  6
CONTINUOUS
 62
     9
100
AcDbLine
 10
46.37499952316281
 20
4.344125796366615
 30
0.0
 11
46.37499952316281
 21
29.0808897317791
 31
0.0
  0
LINE
  5
E1
330
1F
100
AcDbEntity
  8
0
  6
CONTINUOUS
 62
     9
100
AcDbLine
 10
46.37499952316281
 20
20.0808897317791
 30
0.0
 11
47.57499952316282
 21
20.0808897317791
 31
0.0
  0
LINE
  5
E2
330
1F
100
AcDbEntity
  8
0
  6
CONTINUOUS
 62
     9
100
AcDbLine
 10
47.57499952316282
 20
3.380889999999983
 30
0.0
 11
47.57499952316282
 21
21.0808897317791
 31
0.0
  0
LINE
  5
E3
330
1F
100
AcDbEntity
  8
0
  6
CONTINUOUS
 62
     9
100
AcDbLine
 10
21.37499952316282
 20
4.805198891797636
 30
0.0
 11
21.37499952316282
 21
21.0808897317791
 31
0.0
  0
LINE
  5
E4
330
1F
100
AcDbEntity
  8
0
  6
CONTINUOUS
 62
     9
100
AcDbLine
 10
-46.37500047683715
 20
-11.71911
 30
0.0
 11
-46.37500047683715
 21
4.280889999999991
 31
0.0
  0
INSERT
  5
E5
330
1F
100
AcDbEntity
  8
0
 62
     9
100
AcDbBlockReference
  2
_OPEN30
 10
-46.37500047683715
 20
-11.71911
 30
0.0
 41
3.000002787824364
 42
2.999989273978464
 50
270.0
  0
INSERT
  5
E6
330
1F
100
AcDbEntity
  8
0
 62
     9
100
AcDbBlockReference
  2
_OPEN30
 10
-46.37500047683715
 20
4.280889999999991
 30
0.0
 41
3.000002787824364
 42
2.999989273978464
 50
90.0
  0
LINE
  5
E7
330
1F
100
AcDbEntity
  8
0
  6
CONTINUOUS
 62
     9
100
AcDbLine
 10
-6.375000476837151
 20
28.0808897317791
 30
0.0
 11
3.624999523162799
 21
28.0808897317791
 31
0.0
  0
INSERT
  5
E8
330
1F
100
AcDbEntity
  8
0
 62
     9
100
AcDbBlockReference
  2
_OPEN30
 10
-6.375000476837151
 20
28.0808897317791
 30
0.0
 41
3.000002787824364
 42
2.999989273978464
 50
180.0
  0
INSERT
  5
E9
330
1F
100
AcDbEntity
  8
0
 62
     9
100
AcDbBlockReference
  2
_OPEN30
 10
3.624999523162799
 20
28.0808897317791
 30
0.0
 41
3.000002787824364
 42
2.999989273978464
 50
360.0
  0
LINE
  5
EA
330
1F
100
AcDbEntity
  8
0
  6
CONTINUOUS
 62
     9
100
AcDbLine
 10
21.37499952316282
 20
20.0808897317791
 30
0.0
 11
46.37499952316281
 21
20.0808897317791
 31
0.0
  0
INSERT
  5
EB
330
1F
100
AcDbEntity
  8
0
 62
     9
100
AcDbBlockReference
  2
_OPEN30
 10
21.37499952316282
 20
20.0808897317791
 30
0.0
 41
3.000002787824364
 42
2.999989273978464
 50
180.0
  0
INSERT
  5
EC
330
1F
100
AcDbEntity
  8
0
 62
     9
100
AcDbBlockReference
  2
_OPEN30
 10
46.37499952316281
 20
20.0808897317791
 30
0.0
 41
3.000002787824364
 42
2.999989273978464
 50
360.0
  0
LINE
  5
ED
330
1F
100
AcDbEntity
  8
0
  6
CONTINUOUS
 62
     9
100
AcDbLine
 10
3.624999523162799
 20
28.0808897317791
 30
0.0
 11
46.37499952316281
 21
28.0808897317791
 31
0.0
  0
INSERT
  5
EE
330
1F
100
AcDbEntity
  8
0
 62
     9
100
AcDbBlockReference
  2
_OPEN30
 10
3.624999523162799
 20
28.0808897317791
 30
0.0
 41
3.000002787824364
 42
2.999989273978464
 50
180.0
  0
INSERT
  5
EF
330
1F
100
AcDbEntity
  8
0
 62
     9
100
AcDbBlockReference
  2
_OPEN30
 10
46.37499952316281
 20
28.0808897317791
 30
0.0
 41
3.000002787824364
 42
2.999989273978464
 50
360.0
  0
LINE
  5
F0
330
1F
100
AcDbEntity
  8
0
  6
CENTER
 62
     9
100
AcDbLine
 10
88.37500047683716
 20
-3.719109999999985
 30
0.0
 11
70.37500047683699
 21
-3.719109999999985
 31
0.0
  0
LINE
  5
F1
330
1F
100
AcDbEntity
  8
0
  6
CENTER
 62
     9
100
AcDbLine
 10
79.37500047683707
 20
5.280890000000101
 30
0.0
 11
79.37500047683707
 21
-12.71911000000007
 31
0.0
  0
LINE
  5
F2
330
1F
100
AcDbEntity
  8
0
  6
CENTER
 62
     9
100
AcDbLine
 10
-55.37500047683715
 20
-3.71911000000002
 30
0.0
 11
-73.37500047683716
 21
-3.71911000000002
 31
0.0
  0
LINE
  5
F3
330
1F
100
AcDbEntity
  8
0
  6
CENTER
 62
     9
100
AcDbLine
 10
-64.37500047683716
 20
5.28088999999998
 30
0.0
 11
-64.37500047683716
 21
-12.71911000000002
 31
0.0
  0
LINE
  5
F4
330
1F
100
AcDbEntity
  8
0
  6
CONTINUOUS
 62
     9
100
AcDbLine
 10
-26.37500047683715
 20
24.08088999999999
 30
0.0
 11
-26.37500047683715
 21
-2.21911000000002
 31
0.0
  0
INSERT
  5
F5
330
1F
100
AcDbEntity
  8
0
 62
     9
100
AcDbBlockReference
  2
_OPEN30
 10
-26.37500047683715
 20
-2.21911000000002
 30
0.0
 41
3.000002787824364
 42
2.999989273978464
 50
270.0
  0
LINE
  5
F6
330
1F
100
AcDbEntity
  8
0
  6
CONTINUOUS
 62
     9
100
AcDbLine
 10
-26.37500047683715
 20
-10.21911
 30
0.0
 11
-26.37500047683715
 21
-5.219109999999995
 31
0.0
  0
INSERT
  5
F7
330
1F
100
AcDbEntity
  8
0
 62
     9
100
AcDbBlockReference
  2
_OPEN30
 10
-26.37500047683715
 20
-5.219109999999995
 30
0.0
 41
3.000002787824364
 42
2.999989273978464
 50
90.0
  0
LINE
  5
F8
330
1F
100
AcDbEntity
  8
0
  6
CONTINUOUS
 62
     9
100
AcDbLine
 10
-16.37500047683715
 20
27.28088999999999
 30
0.0
 11
-16.37500047683715
 21
-2.719110000000013
 31
0.0
  0
INSERT
  5
F9
330
1F
100
AcDbEntity
  8
0
 62
     9
100
AcDbBlockReference
  2
_OPEN30
 10
-16.37500047683715
 20
-2.719110000000013
 30
0.0
 41
3.000002787824364
 42
2.999989273978464
 50
270.0
  0
LINE
  5
FA
330
1F
100
AcDbEntity
  8
0
  6
CONTINUOUS
 62
     9
100
AcDbLine
 10
-16.37500047683715
 20
-10.21911000000001
 30
0.0
 11
-16.37500047683715
 21
-5.219110000000013
 31
0.0
  0
INSERT
  5
FB
330
1F
100
AcDbEntity
  8
0
 62
     9
100
AcDbBlockReference
  2
_OPEN30
 10
-16.37500047683715
 20
-5.219110000000013
 30
0.0
 41
3.000002787824364
 42
2.999989273978464
 50
90.0
  0
LINE
  5
FC
330
1F
100
AcDbEntity
  8
0
  6
CONTINUOUS
 62
     9
100
AcDbLine
 10
3.624999523162849
 20
12.0808897317791
 30
0.0
 11
-1.375000476837151
 21
12.0808897317791
 31
0.0
  0
INSERT
  5
FD
330
1F
100
AcDbEntity
  8
0
 62
     9
100
AcDbBlockReference
  2
_OPEN30
 10
-1.375000476837151
 20
12.0808897317791
 30
0.0
 41
3.000002787824364
 42
2.999989273978464
 50
180.0
  0
LINE
  5
FE
330
1F
100
AcDbEntity
  8
0
  6
CONTINUOUS
 62
     9
100
AcDbLine
 10
-11.37500047683715
 20
12.0808897317791
 30
0.0
 11
-6.375000476837151
 21
12.0808897317791
 31
0.0
  0
INSERT
  5
FF
330
1F
100
AcDbEntity
  8
0
 62
     9
100
AcDbBlockReference
  2
_OPEN30
 10
-6.375000476837151
 20
12.0808897317791
 30
0.0
 41
3.000002787824364
 42
2.999989273978464
 50
360.0
  0
LINE
  5
100
330
1F
100
AcDbEntity
  8
0
  6
CONTINUOUS
 62
     9
100
AcDbLine
 10
62.97500047683715
 20
20.0808897317791
 30
0.0
 11
47.57499952316282
 21
20.0808897317791
 31
0.0
  0
INSERT
  5
101
330
1F
100
AcDbEntity
  8
0
 62
     9
100
AcDbBlockReference
  2
_OPEN30
 10
47.57499952316282
 20
20.0808897317791
 30
0.0
 41
3.000002787824364
 42
2.999989273978464
 50
180.0
  0
LINE
  5
102
330
1F
100
AcDbEntity
  8
0
  6
CONTINUOUS
 62
     9
100
AcDbLine
 10
18.1227795231628
 20
20.0808897317791
 30
0.0
 11
3.624999523162799
 21
20.0808897317791
 31
0.0
  0
INSERT
  5
103
330
1F
100
AcDbEntity
  8
0
 62
     9
100
AcDbBlockReference
  2
_OPEN30
 10
3.624999523162799
 20
20.0808897317791
 30
0.0
 41
3.000002787824364
 42
2.999989273978464
 50
180.0
  0
LINE
  5
104
330
1F
100
AcDbEntity
  8
0
  6
CONTINUOUS
 62
     9
100
AcDbLine
 10
-3.875000476837151
 20
20.0808897317791
 30
0.0
 11
1.124999523162853
 21
20.0808897317791
 31
0.0
  0
INSERT
  5
105
330
1F
100
AcDbEntity
  8
0
 62
     9
100
AcDbBlockReference
  2
_OPEN30
 10
1.124999523162853
 20
20.0808897317791
 30
0.0
 41
3.000002787824364
 42
2.999989273978464
 50
360.0
  0
LINE
  5
106
330
1F
100
AcDbEntity
  8
0
  6
CONTINUOUS
 62
     9
100
AcDbLine
 10
-36.37500047683715
 20
22.00088999999999
 30
0.0
 11
-36.37500047683715
 21
-0.2191099999999988
 31
0.0
  0
INSERT
  5
107
330
1F
100
AcDbEntity
  8
0
 62
     9
100
AcDbBlockReference
  2
_OPEN30
 10
-36.37500047683715
 20
-0.2191099999999988
 30
0.0
 41
3.000002787824364
 42
2.999989273978464
 50
270.0
  0
LINE
  5
108
330
1F
100
AcDbEntity
  8
0
  6
CONTINUOUS
 62
     9
100
AcDbLine
 10
-36.37500047683715
 20
-12.21911000000002
 30
0.0
 11
-36.37500047683715
 21
-7.21911000000002
 31
0.0
  0
INSERT
  5
109
330
1F
100
AcDbEntity
  8
0
 62
     9
100
AcDbBlockReference
  2
_OPEN30
 10
-36.37500047683715
 20
-7.21911000000002
 30
0.0
 41
3.000002787824364
 42
2.999989273978464
 50
90.0
  0
TEXT
  5
10A
330
1F
100
AcDbEntity
  8
0
 62
     7
100
AcDbText
 10
-69.20625870640592
 20
-18.96684785848644
 30
0.0
 40
4.0
  1
2-M2(P=0.4)ＤＥＰＴＨ　3MAX
 41
0.7567567567567568
  7
FDASTYLE0
 72
     5
 11
-2.006258706405916
 21
-18.96684785848644
 31
0.0
100
AcDbText
  0
TEXT
  5
10B
330
1F
100
AcDbEntity
  8
0
 62
     7
100
AcDbText
 10
-17.37500047683715
 20
5.280889999999991
 30
0.0
 40
4.0
  1
2.5
 50
90.0
 41
0.8000000000000002
  7
FDASTYLE0
 72
     5
 11
-17.37500047683715
 21
14.88088999999999
 31
0.0
100
AcDbText
  0
TEXT
  5
10C
330
1F
100
AcDbEntity
  8
0
 62
     7
100
AcDbText
 10
-19.97500047683715
 20
15.88088999999999
 30
0.0
 40
2.6
  1
 0
 50
90.0
 41
0.7999999999999997
  7
FDASTYLE0
 72
     5
 11
-19.97500047683715
 21
20.04088999999999
 31
0.0
100
AcDbText
  0
TEXT
  5
10D
330
1F
100
AcDbEntity
  8
0
 62
     7
100
AcDbText
 10
-17.17500047683715
 20
15.88088999999999
 30
0.0
 40
2.6
  1
-0.15
 50
90.0
 41
0.8
  7
FDASTYLE0
 72
     5
 11
-17.17500047683715
 21
26.28088999999999
 31
0.0
100
AcDbText
  0
TEXT
  5
10E
330
1F
100
AcDbEntity
  8
0
 62
     7
100
AcDbText
 10
-27.37500047683715
 20
5.280889999999991
 30
0.0
 40
4.0
  1
φ3
 50
90.0
 41
0.7272727272727271
  7
FDASTYLE0
 72
     5
 11
-27.37500047683715
 21
11.68088999999999
 31
0.0
100
AcDbText
  0
TEXT
  5
10F
330
1F
100
AcDbEntity
  8
0
 62
     7
100
AcDbText
 10
-29.97500047683715
 20
12.68088999999999
 30
0.0
 40
2.6
  1
 0
 50
90.0
 41
0.7999999999999997
  7
FDASTYLE0
 72
     5
 11
-29.97500047683715
 21
16.84088999999999
 31
0.0
100
AcDbText
  0
TEXT
  5
110
330
1F
100
AcDbEntity
  8
0
 62
     7
100
AcDbText
 10
-27.17500047683715
 20
12.68088999999999
 30
0.0
 40
2.6
  1
-0.02
 50
90.0
 41
0.8
  7
FDASTYLE0
 72
     5
 11
-27.17500047683715
 21
23.08088999999999
 31
0.0
100
AcDbText
  0
TEXT
  5
111
330
1F
100
AcDbEntity
  8
0
 62
     7
100
AcDbText
 10
-37.37500047683715
 20
5.280889999999991
 30
0.0
 40
4.0
  1
φ7
 50
90.0
 41
0.7272727272727271
  7
FDASTYLE0
 72
     5
 11
-37.37500047683715
 21
11.68088999999999
 31
0.0
100
AcDbText
  0
TEXT
  5
112
330
1F
100
AcDbEntity
  8
0
 62
     7
100
AcDbText
 10
-39.97500047683715
 20
12.68088999999999
 30
0.0
 40
2.6
  1
 0
 50
90.0
 41
0.800000000000001
  7
FDASTYLE0
 72
     5
 11
-39.97500047683715
 21
16.84089
 31
0.0
100
AcDbText
  0
TEXT
  5
113
330
1F
100
AcDbEntity
  8
0
 62
     7
100
AcDbText
 10
-37.17500047683715
 20
12.68088999999999
 30
0.0
 40
2.6
  1
-0.1
 50
90.0
 41
0.8000000000000002
  7
FDASTYLE0
 72
     5
 11
-37.17500047683715
 21
21.00088999999999
 31
0.0
100
AcDbText
  0
TEXT
  5
114
330
1F
100
AcDbEntity
  8
0
 62
     7
100
AcDbText
 10
-47.37500047683715
 20
-13.01911000000001
 30
0.0
 40
4.0
  1
φ16
 50
90.0
 41
0.7500000000000007
  7
FDASTYLE0
 72
     5
 11
-47.37500047683715
 21
-3.419110000000003
 31
0.0
100
AcDbText
  0
TEXT
  5
115
330
1F
100
AcDbEntity
  8
0
 62
     7
100
AcDbText
 10
-49.97500047683715
 20
-2.419110000000011
 30
0.0
 40
2.6
  1
±0.2
 50
90.0
 41
0.7619047619047619
  7
FDASTYLE0
 72
     5
 11
-49.97500047683715
 21
5.90088999999999
 31
0.0
100
AcDbText
  0
TEXT
  5
116
330
1F
100
AcDbEntity
  8
0
 62
     7
100
AcDbText
 10
-5.475000476837151
 20
13.0808897317791
 30
0.0
 40
4.0
  1
5
 41
0.7999999999999999
  7
FDASTYLE0
 72
     5
 11
-2.275000476837151
 21
13.0808897317791
 31
0.0
100
AcDbText
  0
TEXT
  5
117
330
1F
100
AcDbEntity
  8
0
 62
     7
100
AcDbText
 10
-4.57500047683718
 20
29.0808897317791
 30
0.0
 40
4.0
  1
10
 41
0.8
  7
FDASTYLE0
 72
     5
 11
1.824999523162821
 21
29.0808897317791
 31
0.0
100
AcDbText
  0
TEXT
  5
118
330
1F
100
AcDbEntity
  8
0
 62
     7
100
AcDbText
 10
7.5227795231628
 20
21.0808897317791
 30
0.0
 40
4.0
  1
2.5
 41
0.8000000000000002
  7
FDASTYLE0
 72
     5
 11
17.1227795231628
 21
21.0808897317791
 31
0.0
100
AcDbText
  0
TEXT
  5
119
330
1F
100
AcDbEntity
  8
0
 62
     7
100
AcDbText
 10
48.37007295969038
 20
-19.01895246379835
 30
0.0
 40
4.0
  1
（＋）ＭＡＲＫ
 41
0.6666666666666666
  7
FDASTYLE0
 72
     5
 11
70.77007295969038
 21
-19.01895246379835
 31
0.0
100
AcDbText
  0
TEXT
  5
11A
330
1F
100
AcDbEntity
  8
0
 62
     7
100
AcDbText
 10
-24.26549865614597
 20
-27.69269008265552
 30
0.0
 40
4.0
  1
NAMEPLATE　LOT№
 41
0.7777777777777778
  7
FDASTYLE0
 72
     5
 11
20.53450134385403
 21
-27.69269008265552
 31
0.0
100
AcDbText
  0
TEXT
  5
11B
330
1F
100
AcDbEntity
  8
0
 62
     7
100
AcDbText
 10
30.67499952316282
 20
21.0808897317791
 30
0.0
 40
4.0
  1
25
 41
0.8000000000000003
  7
FDASTYLE0
 72
     5
 11
37.07499952316282
 21
21.0808897317791
 31
0.0
100
AcDbText
  0
TEXT
  5
11C
330
1F
100
AcDbEntity
  8
0
 62
     7
100
AcDbText
 10
52.37500047683715
 20
21.0808897317791
 30
0.0
 40
4.0
  1
1.2
 41
0.8000000000000002
  7
FDASTYLE0
 72
     5
 11
61.97500047683715
 21
21.0808897317791
 31
0.0
100
AcDbText
  0
TEXT
  5
11D
330
1F
100
AcDbEntity
  8
0
 62
     7
100
AcDbText
 10
16.9999995231628
 20
29.0808897317791
 30
0.0
 40
4.0
  1
42.75
 41
0.7999999999999998
  7
FDASTYLE0
 72
     5
 11
32.9999995231628
 21
29.0808897317791
 31
0.0
100
AcDbText
  0
LINE
  5
11E
330
1F
100
AcDbEntity
  8
0
  6
CONTINUOUS
 62
     3
100
AcDbLine
 10
77.67500047683714
 20
-7.96910988675104
 30
0.0
 11
77.67500047683714
 21
-9.51566069847564
 31
0.0
  0
LINE
  5
11F
330
1F
100
AcDbEntity
  8
0
  6
CONTINUOUS
 62
     3
100
AcDbLine
 10
78.17500047683714
 20
-7.46910988675104
 30
0.0
 11
80.67500047683714
 21
-7.46910988675104
 31
0.0
  0
LINE
  5
120
330
1F
100
AcDbEntity
  8
0
  6
CONTINUOUS
 62
     3
100
AcDbLine
 10
81.17500047683714
 20
-7.96910988675104
 30
0.0
 11
81.17500047683714
 21
-9.476713668193765
 31
0.0
  0
LINE
  5
121
330
1F
100
AcDbEntity
  8
0
  6
CONTINUOUS
 62
     3
100
AcDbLine
 10
78.07500047683715
 20
0.0308898867513125
 30
0.0
 11
80.67500047683714
 21
0.0308898867513125
 31
0.0
  0
LINE
  5
122
330
1F
100
AcDbEntity
  8
0
  6
CONTINUOUS
 62
     3
100
AcDbLine
 10
81.17500047683714
 20
0.5308898867513126
 30
0.0
 11
81.17500047683714
 21
2.038493668194052
 31
0.0
  0
LINE
  5
123
330
1F
100
AcDbEntity
  8
0
  6
CONTINUOUS
 62
     3
100
AcDbLine
 10
77.57500047683715
 20
0.5308898867513126
 30
0.0
 11
77.57500047683715
 21
2.038493668194052
 31
0.0
  0
ARC
  5
124
330
1F
100
AcDbEntity
  8
0
  6
CONTINUOUS
 62
     3
100
AcDbCircle
 10
78.07500047683715
 20
0.5308898867513126
 30
0.0
 40
0.5
100
AcDbArc
 50
180.0
 51
270.0
  0
ARC
  5
125
330
1F
100
AcDbEntity
  8
0
  6
CONTINUOUS
 62
     3
100
AcDbCircle
 10
80.67500047683714
 20
0.5308898867513126
 30
0.0
 40
0.5
100
AcDbArc
 50
270.0
 51
360.0
  0
ARC
  5
126
330
1F
100
AcDbEntity
  8
0
  6
CONTINUOUS
 62
     3
100
AcDbCircle
 10
80.67500047683714
 20
-7.96910988675104
 30
0.0
 40
0.5
100
AcDbArc
 50
0.0
 51
90.0
  0
ARC
  5
127
330
1F
100
AcDbEntity
  8
0
  6
CONTINUOUS
 62
     3
100
AcDbCircle
 10
79.37500047683716
 20
-3.719109999999871
 30
0.0
 40
6.7
100
AcDbArc
 50
111.7753128152793
 51
249.2164404041543
  0
ARC
  5
128
330
1F
100
AcDbEntity
  8
0
  6
CONTINUOUS
 62
     3
100
AcDbCircle
 10
79.37500047683716
 20
-3.719109999999871
 30
0.0
 40
6.7
100
AcDbArc
 50
291.7753128152795
 51
428.2246871847206
  0
ARC
  5
129
330
1F
100
AcDbEntity
  8
0
  6
CONTINUOUS
 62
     3
100
AcDbCircle
 10
78.17500047683714
 20
-7.96910988675104
 30
0.0
 40
0.5
100
AcDbArc
 50
90.0
 51
180.0
  0
ARC
  5
12A
330
1F
100
AcDbEntity
  8
0
  6
CONTINUOUS
 62
     3
100
AcDbCircle
 10
77.17500047683714
 20
-9.51566069847564
 30
0.0
 40
0.5
100
AcDbArc
 50
249.2164404041543
 51
360.0
  0
ARC
  5
12B
330
1F
100
AcDbEntity
  8
0
  6
CONTINUOUS
 62
     3
100
AcDbCircle
 10
81.67500047683714
 20
-9.476713668193765
 30
0.0
 40
0.5
100
AcDbArc
 50
180.0
 51
291.7753128152795
  0
ARC
  5
12C
330
1F
100
AcDbEntity
  8
0
  6
CONTINUOUS
 62
     3
100
AcDbCircle
 10
77.07500047683715
 20
2.038493668194052
 30
0.0
 40
0.5
100
AcDbArc
 50
0.0
 51
111.7753128152792
  0
ARC
  5
12D
330
1F
100
AcDbEntity
  8
0
  6
CONTINUOUS
 62
     3
100
AcDbCircle
 10
81.67500047683714
 20
2.038493668194052
 30
0.0
 40
0.5
100
AcDbArc
 50
68.22468718472075
 51
180.0
  0
LINE
  5
12E
330
1F
100
AcDbEntity
  8
0
  6
CONTINUOUS
 62
     3
100
AcDbLine
 10
78.12500047683719
 20
0.7308900000000893
 30
0.0
 11
78.12500047683719
 21
3.491357596484336
 31
0.0
  0
LINE
  5
12F
330
1F
100
AcDbEntity
  8
0
  6
CONTINUOUS
 62
     3
100
AcDbLine
 10
80.62500047683719
 20
3.491357596484336
 30
0.0
 11
80.62500047683719
 21
0.7308900000001035
 31
0.0
  0
LINE
  5
130
330
1F
100
AcDbEntity
  8
0
  6
CONTINUOUS
 62
     3
100
AcDbLine
 10
80.37500047683719
 20
0.880890000000095
 30
0.0
 11
78.37500047683719
 21
0.880890000000095
 31
0.0
  0
ARC
  5
131
330
1F
100
AcDbEntity
  8
0
  6
CONTINUOUS
 62
     3
100
AcDbCircle
 10
79.37500047683719
 20
-3.719109999999928
 30
0.0
 40
7.318014960352947
100
AcDbArc
 50
80.16500411764697
 51
99.83499588235303
  0
LINE
  5
132
330
1F
100
AcDbEntity
  8
0
  6
CONTINUOUS
 62
     3
100
AcDbLine
 10
80.37500047683719
 20
1.280890000000101
 30
0.0
 11
80.37500047683719
 21
0.880890000000095
 31
0.0
  0
LINE
  5
133
330
1F
100
AcDbEntity
  8
0
  6
CONTINUOUS
 62
     3
100
AcDbLine
 10
78.37500047683719
 20
1.280890000000101
 30
0.0
 11
78.37500047683719
 21
0.880890000000095
 31
0.0
  0
LINE
  5
134
330
1F
100
AcDbEntity
  8
0
  6
CONTINUOUS
 62
     3
100
AcDbLine
 10
80.62500047683716
 20
-8.169109999999888
 30
0.0
 11
80.62500047683716
 21
-10.92957759648412
 31
0.0
  0
LINE
  5
135
330
1F
100
AcDbEntity
  8
0
  6
CONTINUOUS
 62
     3
100
AcDbLine
 10
78.12500047683716
 20
-10.92957759648412
 30
0.0
 11
78.12500047683716
 21
-8.169109999999902
 31
0.0
  0
LINE
  5
136
330
1F
100
AcDbEntity
  8
0
  6
CONTINUOUS
 62
     3
100
AcDbLine
 10
78.37500047683716
 20
-8.319109999999894
 30
0.0
 11
80.37500047683716
 21
-8.319109999999894
 31
0.0
  0
ARC
  5
137
330
1F
100
AcDbEntity
  8
0
  6
CONTINUOUS
 62
     3
100
AcDbCircle
 10
79.37500047683716
 20
-3.719109999999871
 30
0.0
 40
7.318014960352947
100
AcDbArc
 50
260.165004117647
 51
279.834995882353
  0
LINE
  5
138
330
1F
100
AcDbEntity
  8
0
  6
CONTINUOUS
 62
     3
100
AcDbLine
 10
78.37500047683716
 20
-8.719109999999899
 30
0.0
 11
78.37500047683716
 21
-8.319109999999894
 31
0.0
  0
LINE
  5
139
330
1F
100
AcDbEntity
  8
0
  6
CONTINUOUS
 62
     3
100
AcDbLine
 10
80.37500047683716
 20
-8.719109999999899
 30
0.0
 11
80.37500047683716
 21
-8.319109999999894
 31
0.0
  0
CIRCLE
  5
13A
330
1F
100
AcDbEntity
  8
0
  6
CONTINUOUS
 62
     3
100
AcDbCircle
 10
79.37500047683716
 20
-3.719109999999899
 30
0.0
 40
7.5
  0
LINE
  5
13B
330
1F
100
AcDbEntity
  8
0
  6
CONTINUOUS
 62
     3
100
AcDbLine
 10
80.62500047683719
 20
0.7308900000001035
 30
0.0
 11
78.12500047683719
 21
0.7308900000000893
 31
0.0
  0
LINE
  5
13C
330
1F
100
AcDbEntity
  8
0
  6
CONTINUOUS
 62
     3
100
AcDbLine
 10
80.62500047683716
 20
-8.169109999999888
 30
0.0
 11
78.12500047683716
 21
-8.169109999999902
 31
0.0
  0
CIRCLE
  5
13D
330
1F
100
AcDbEntity
  8
0
  6
CONTINUOUS
 62
     3
100
AcDbCircle
 10
79.37500047683716
 20
-3.719109999999871
 30
0.0
 40
8.0
  0
LINE
  5
13E
330
1F
100
AcDbEntity
  8
0
  6
CONTINUOUS
 62
     3
100
AcDbLine
 10
80.37500047683719
 20
1.280890000000101
 30
0.0
 11
78.37500047683719
 21
1.280890000000101
 31
0.0
  0
LINE
  5
13F
330
1F
100
AcDbEntity
  8
0
  6
CONTINUOUS
 62
     3
100
AcDbLine
 10
78.37500047683716
 20
-8.719109999999899
 30
0.0
 11
80.37500047683716
 21
-8.719109999999899
 31
0.0
  0
LINE
  5
140
330
1F
100
AcDbEntity
  8
0
  6
CONTINUOUS
 62
     3
100
AcDbLine
 10
26.87499952316283
 20
-11.7191097317791
 30
0.0
 11
45.1749995231628
 21
-11.7191097317791
 31
0.0
  0
LINE
  5
141
330
1F
100
AcDbEntity
  8
0
  6
CONTINUOUS
 62
     3
100
AcDbLine
 10
51.37500047683715
 20
-8.319109886751161
 30
0.0
 11
47.57499952316284
 21
-8.319109886751161
 31
0.0
  0
LINE
  5
142
330
1F
100
AcDbEntity
  8
0
  6
CONTINUOUS
 62
     3
100
AcDbLine
 10
51.37500047683715
 20
-8.619109886751172
 30
0.0
 11
47.57499952316284
 21
-8.619109886751172
 31
0.0
  0
LINE
  5
143
330
1F
100
AcDbEntity
  8
0
  6
CONTINUOUS
 62
     3
100
AcDbLine
 10
46.37499952316285
 20
-10.41910999999999
 30
0.0
 11
46.97499952316284
 21
-10.41910999999999
 31
0.0
  0
LINE
  5
144
330
1F
100
AcDbEntity
  8
0
  6
CONTINUOUS
 62
     3
100
AcDbLine
 10
46.37499952316285
 20
-4.71623626568319
 30
0.0
 11
46.87499952316285
 21
-4.71623626568319
 31
0.0
  0
LINE
  5
145
330
1F
100
AcDbEntity
  8
0
  6
CONTINUOUS
 62
     3
100
AcDbLine
 10
46.87499952316285
 20
-4.71623626568319
 30
0.0
 11
46.87499952316285
 21
-3.719109999999997
 31
0.0
  0
ARC
  5
146
330
1F
100
AcDbEntity
  8
0
  6
CONTINUOUS
 62
     3
100
AcDbCircle
 10
46.97499952316284
 20
-9.819109999999991
 30
0.0
 40
0.6
100
AcDbArc
 50
270.0
 51
360.0
  0
LINE
  5
147
330
1F
100
AcDbEntity
  8
0
  6
CONTINUOUS
 62
     3
100
AcDbLine
 10
47.57499952316284
 20
2.380890000000012
 30
0.0
 11
47.57499952316285
 21
-9.819109999999991
 31
0.0
  0
LINE
  5
148
330
1F
100
AcDbEntity
  8
0
  6
CONTINUOUS
 62
     3
100
AcDbLine
 10
26.87499952316283
 20
4.280889731779102
 30
0.0
 11
45.1749995231628
 21
4.280889731779102
 31
0.0
  0
LINE
  5
149
330
1F
100
AcDbEntity
  8
0
  6
CONTINUOUS
 62
     3
100
AcDbLine
 10
51.37500047683715
 20
1.180889886751192
 30
0.0
 11
51.37500047683715
 21
0.8808898867511807
 31
0.0
  0
LINE
  5
14A
330
1F
100
AcDbEntity
  8
0
  6
CONTINUOUS
 62
     3
100
AcDbLine
 10
51.37500047683715
 20
0.8808898867511807
 30
0.0
 11
47.57499952316284
 21
0.8808898867511807
 31
0.0
  0
LINE
  5
14B
330
1F
100
AcDbEntity
  8
0
  6
CONTINUOUS
 62
     3
100
AcDbLine
 10
51.37500047683715
 20
1.180889886751192
 30
0.0
 11
47.57499952316284
 21
1.180889886751192
 31
0.0
  0
LINE
  5
14C
330
1F
100
AcDbEntity
  8
0
  6
CONTINUOUS
 62
     3
100
AcDbLine
 10
46.37499952316285
 20
-10.78230999999998
 30
0.0
 11
46.37499952316284
 21
3.344090000000026
 31
0.0
  0
LINE
  5
14D
330
1F
100
AcDbEntity
  8
0
  6
CONTINUOUS
 62
     3
100
AcDbLine
 10
45.1749995231628
 20
4.280889731779102
 30
0.0
 11
45.1749995231628
 21
-11.7191097317791
 31
0.0
  0
LINE
  5
14E
330
1F
100
AcDbEntity
  8
0
  6
CONTINUOUS
 62
     3
100
AcDbLine
 10
46.37499952316284
 20
2.98089000000002
 30
0.0
 11
46.97499952316284
 21
2.98089000000002
 31
0.0
  0
LINE
  5
14F
330
1F
100
AcDbEntity
  8
0
  6
CONTINUOUS
 62
     3
100
AcDbLine
 10
46.37499952316284
 20
-2.721983734316776
 30
0.0
 11
46.87499952316284
 21
-2.721983734316776
 31
0.0
  0
LINE
  5
150
330
1F
100
AcDbEntity
  8
0
  6
CONTINUOUS
 62
     3
100
AcDbLine
 10
46.87499952316284
 20
-2.721983734316776
 30
0.0
 11
46.87499952316285
 21
-3.719109999999983
 31
0.0
  0
ARC
  5
151
330
1F
100
AcDbEntity
  8
0
  6
CONTINUOUS
 62
     3
100
AcDbCircle
 10
46.97499952316284
 20
2.380890000000012
 30
0.0
 40
0.6
100
AcDbArc
 50
0.0000000000000472
 51
90.00000000000006
  0
LINE
  5
152
330
1F
100
AcDbEntity
  8
0
  6
CONTINUOUS
 62
     3
100
AcDbLine
 10
26.87499952316283
 20
-11.7191097317791
 30
0.0
 11
26.87499952316283
 21
4.280889731779102
 31
0.0
  0
LINE
  5
153
330
1F
100
AcDbEntity
  8
0
  6
CONTINUOUS
 62
     3
100
AcDbLine
 10
51.37500047683715
 20
-8.319109886751161
 30
0.0
 11
51.37500047683715
 21
-8.619109886751172
 31
0.0
  0
LINE
  5
154
330
1F
100
AcDbEntity
  8
0
  6
CONTINUOUS
 62
     3
100
AcDbLine
 10
46.37499952316284
 20
3.344090000000026
 30
0.0
 11
45.1749995231628
 21
3.780889731779102
 31
0.0
  0
LINE
  5
155
330
1F
100
AcDbEntity
  8
0
  6
CONTINUOUS
 62
     3
100
AcDbLine
 10
46.37499952316285
 20
-10.78230999999998
 30
0.0
 11
45.1749995231628
 21
-11.2191097317791
 31
0.0
  0
LINE
  5
156
330
1F
100
AcDbEntity
  8
0
  6
CONTINUOUS
 62
     3
100
AcDbLine
 10
26.87499952316283
 20
4.280889731779102
 30
0.0
 11
21.57499952316282
 21
4.280889731779102
 31
0.0
  0
LINE
  5
157
330
1F
100
AcDbEntity
  8
0
  6
CONTINUOUS
 62
     3
100
AcDbLine
 10
21.37499952316282
 20
4.080889731779099
 30
0.0
 11
21.57499952316282
 21
4.280889731779102
 31
0.0
  0
LINE
  5
158
330
1F
100
AcDbEntity
  8
0
  6
CONTINUOUS
 62
     3
100
AcDbLine
 10
21.37499952316283
 20
-11.51910973177909
 30
0.0
 11
21.57499952316282
 21
-11.7191097317791
 31
0.0
  0
LINE
  5
159
330
1F
100
AcDbEntity
  8
0
  6
CONTINUOUS
 62
     3
100
AcDbLine
 10
26.87499952316283
 20
-11.7191097317791
 30
0.0
 11
21.57499952316282
 21
-11.7191097317791
 31
0.0
  0
LINE
  5
15A
330
1F
100
AcDbEntity
  8
0
  6
CONTINUOUS
 62
     3
100
AcDbLine
 10
21.37499952316281
 20
-11.51910973177908
 30
0.0
 11
21.37499952316282
 21
4.080889731779099
 31
0.0
  0
INSERT
  5
15B
330
1F
100
AcDbEntity
  8
0
  6
CONTINUOUS
100
AcDbBlockReference
  2
DA_IMAGEDIMGROUP_1
 10
0.0
 20
0.0
 30
0.0
  0
INSERT
  5
15C
330
1F
100
AcDbEntity
  8
0
  6
CONTINUOUS
100
AcDbBlockReference
  2
DA_IMAGEDIMGROUP_2
 10
0.0
 20
0.0
 30
0.0
  0
INSERT
  5
15D
330
1F
100
AcDbEntity
  8
0
  6
CONTINUOUS
100
AcDbBlockReference
  2
DA_IMAGEDIMGROUP_3
 10
0.0
 20
0.0
 30
0.0
  0
INSERT
  5
15E
330
1F
100
AcDbEntity
  8
0
  6
CONTINUOUS
100
AcDbBlockReference
  2
DA_IMAGEDIMGROUP_4
 10
0.0
 20
0.0
 30
0.0
  0
VIEWPORT
  5
46
330
1B
100
AcDbEntity
 67
     1
  8
0
100
AcDbViewport
 10
-0.0999999999999943
 20
0.5
 30
0.0
 40
530.8500028610229
 41
201.4853383906746
 68
     1
 69
     1
1001
ACAD
1000
MVIEW
1002
{
1070
    16
1010
0.0
1020
0.0
1030
0.0
1010
0.0
1020
0.0
1030
1.0
1040
0.0
1040
201.4853383906746
1040
-0.0999999999999943
1040
0.5
1040
50.0
1040
0.0
1040
0.0
1070
     0
1070
   100
1070
     0
1070
     1
1070
     0
1070
     0
1070
     0
1070
     0
1040
0.0
1040
0.0
1040
0.0
1040
0.5
1040
0.5
1040
0.0
1040
0.0
1070
     0
1002
{
1002
}
1002
}
  0
ENDSEC
  0
SECTION
  2
OBJECTS
  0
DICTIONARY
  5
C
330
0
100
AcDbDictionary
  3
ACAD_GROUP
350
D
  3
ACAD_LAYOUT
350
1A
  3
ACAD_MLINESTYLE
350
17
  3
ACAD_PLOTSETTINGS
350
19
  3
ACDBHEADERROUNDTRIPXREC
350
15F
  0
DICTIONARY
  5
D
102
{ACAD_REACTORS
330
C
102
}
330
C
100
AcDbDictionary
  0
DICTIONARY
  5
1A
102
{ACAD_REACTORS
330
C
102
}
330
C
100
AcDbDictionary
  0
DICTIONARY
  5
17
102
{ACAD_REACTORS
330
C
102
}
330
C
100
AcDbDictionary
  3
STANDARD
350
18
  0
DICTIONARY
  5
19
102
{ACAD_REACTORS
330
C
102
}
330
C
100
AcDbDictionary
  0
DICTIONARY
  5
15F
102
{ACAD_REACTORS
330
C
102
}
330
C
100
AcDbDictionary
  3
CEPSNTYPE
350
168
  3
DIMSTYLEDATA
350
17E
  3
FINGERPRINTGUID
350
169
  3
HYPERLINKBASE
350
162
  3
INSUNITS
350
167
  3
LAYOUTDICT
350
164
  3
LWETCUNION
350
166
  3
PLOTSETDICT
350
165
  3
PSVPSCALE
350
16B
  3
PUCSBASE
350
16E
  3
PUCSORGBACK
350
174
  3
PUCSORGBOTTOM
350
170
  3
PUCSORGFRONT
350
173
  3
PUCSORGLEFT
350
171
  3
PUCSORGRIGHT
350
172
  3
PUCSORGTOP
350
16F
  3
PUCSORTHOREF
350
16C
  3
PUCSORTHOVIEW
350
16D
  3
STYLESHEET
350
163
  3
TSTACKALIGN
350
160
  3
TSTACKSIZE
350
161
  3
UCSBASE
350
177
  3
UCSORGBACK
350
17D
  3
UCSORGBOTTOM
350
179
  3
UCSORGFRONT
350
17C
  3
UCSORGLEFT
350
17A
  3
UCSORGRIGHT
350
17B
  3
UCSORGTOP
350
178
  3
UCSORTHOREF
350
175
  3
UCSORTHOVIEW
350
176
  3
VERSIONGUID
350
16A
  0
MLINESTYLE
  5
18
102
{ACAD_REACTORS
330
17
102
}
330
17
100
AcDbMlineStyle
  2
Standard
 70
     0
  3

 62
   256
 51
90.0
 52
90.0
 71
     2
 49
0.5
 62
   256
  6
BYLAYER
 49
-0.5
 62
   256
  6
BYLAYER
  0
XRECORD
  5
168
102
{ACAD_REACTORS
330
15F
102
}
330
15F
100
AcDbXrecord
 90
        0
  0
XRECORD
  5
17E
102
{ACAD_REACTORS
330
15F
102
}
330
15F
100
AcDbXrecord
1000
DSTYLE
1002
{
1070
   171
 70
     2
1070
   143
 40
25.4
1070
   274
 70
     2
1070
   141
 40
0.09
1070
   271
 70
     4
1070
    43
 40
0.38
1070
    44
 40
0.18
1070
   278
 70
    46
1070
    42
 40
0.0625
1070
   147
 40
0.09
1070
    77
 70
     3
1070
   272
 70
     4
1070
    73
 70
     1
1070
   172
 70
     0
1070
    74
 70
     1
1070
   283
 70
     1
1070
   340
340
11
1070
   140
 40
0.18
1070
   284
 70
     0
1070
    78
 70
     0
1002
}
  0
XRECORD
  5
169
102
{ACAD_REACTORS
330
15F
102
}
330
15F
100
AcDbXrecord
  1
{7242873B-1FDC-4B14-B478-055AB67BD229}
  0
XRECORD
  5
162
102
{ACAD_REACTORS
330
15F
102
}
330
15F
100
AcDbXrecord
  1

  0
XRECORD
  5
167
102
{ACAD_REACTORS
330
15F
102
}
330
15F
100
AcDbXrecord
 90
        4
  0
XRECORD
  5
164
102
{ACAD_REACTORS
330
15F
102
}
330
15F
100
AcDbXrecord
340
1A
  0
XRECORD
  5
166
102
{ACAD_REACTORS
330
15F
102
}
330
15F
100
AcDbXrecord
 90
    10781
  0
XRECORD
  5
165
102
{ACAD_REACTORS
330
15F
102
}
330
15F
100
AcDbXrecord
340
19
  0
XRECORD
  5
16B
102
{ACAD_REACTORS
330
15F
102
}
330
15F
100
AcDbXrecord
 40
0.0
  0
XRECORD
  5
16E
102
{ACAD_REACTORS
330
15F
102
}
330
15F
100
AcDbXrecord
340
0
  0
XRECORD
  5
174
102
{ACAD_REACTORS
330
15F
102
}
330
15F
100
AcDbXrecord
 10
0.0
 20
0.0
 30
0.0
  0
XRECORD
  5
170
102
{ACAD_REACTORS
330
15F
102
}
330
15F
100
AcDbXrecord
 10
0.0
 20
0.0
 30
0.0
  0
XRECORD
  5
173
102
{ACAD_REACTORS
330
15F
102
}
330
15F
100
AcDbXrecord
 10
0.0
 20
0.0
 30
0.0
  0
XRECORD
  5
171
102
{ACAD_REACTORS
330
15F
102
}
330
15F
100
AcDbXrecord
 10
0.0
 20
0.0
 30
0.0
  0
XRECORD
  5
172
102
{ACAD_REACTORS
330
15F
102
}
330
15F
100
AcDbXrecord
 10
0.0
 20
0.0
 30
0.0
  0
XRECORD
  5
16F
102
{ACAD_REACTORS
330
15F
102
}
330
15F
100
AcDbXrecord
 10
0.0
 20
0.0
 30
0.0
  0
XRECORD
  5
16C
102
{ACAD_REACTORS
330
15F
102
}
330
15F
100
AcDbXrecord
340
0
  0
XRECORD
  5
16D
102
{ACAD_REACTORS
330
15F
102
}
330
15F
100
AcDbXrecord
 70
     0
  0
XRECORD
  5
163
102
{ACAD_REACTORS
330
15F
102
}
330
15F
100
AcDbXrecord
  1

  0
XRECORD
  5
160
102
{ACAD_REACTORS
330
15F
102
}
330
15F
100
AcDbXrecord
 90
        1
  0
XRECORD
  5
161
102
{ACAD_REACTORS
330
15F
102
}
330
15F
100
AcDbXrecord
 90
       70
  0
XRECORD
  5
177
102
{ACAD_REACTORS
330
15F
102
}
330
15F
100
AcDbXrecord
340
0
  0
XRECORD
  5
17D
102
{ACAD_REACTORS
330
15F
102
}
330
15F
100
AcDbXrecord
 10
0.0
 20
0.0
 30
0.0
  0
XRECORD
  5
179
102
{ACAD_REACTORS
330
15F
102
}
330
15F
100
AcDbXrecord
 10
0.0
 20
0.0
 30
0.0
  0
XRECORD
  5
17C
102
{ACAD_REACTORS
330
15F
102
}
330
15F
100
AcDbXrecord
 10
0.0
 20
0.0
 30
0.0
  0
XRECORD
  5
17A
102
{ACAD_REACTORS
330
15F
102
}
330
15F
100
AcDbXrecord
 10
0.0
 20
0.0
 30
0.0
  0
XRECORD
  5
17B
102
{ACAD_REACTORS
330
15F
102
}
330
15F
100
AcDbXrecord
 10
0.0
 20
0.0
 30
0.0
  0
XRECORD
  5
178
102
{ACAD_REACTORS
330
15F
102
}
330
15F
100
AcDbXrecord
 10
0.0
 20
0.0
 30
0.0
  0
XRECORD
  5
175
102
{ACAD_REACTORS
330
15F
102
}
330
15F
100
AcDbXrecord
340
0
  0
XRECORD
  5
176
102
{ACAD_REACTORS
330
15F
102
}
330
15F
100
AcDbXrecord
 70
     0
  0
XRECORD
  5
16A
102
{ACAD_REACTORS
330
15F
102
}
330
15F
100
AcDbXrecord
  1
{FAEB1C32-E019-11D5-929B-00C0DF256EC4}
  0
ENDSEC
  0
EOF
